ISO-10303-21;
HEADER;
/* Generated by software containing ST-Developer
 * from STEP Tools, Inc. (www.steptools.com) 
 */

FILE_DESCRIPTION(
/* description */ (''),
/* implementation_level */ '2;1');

FILE_NAME(
/* name */ 'Hi-Link_HLK_5W v4.step',
/* time_stamp */ '2023-01-28T01:40:10+03:00',
/* author */ (''),
/* organization */ (''),
/* preprocessor_version */ 'ST-DEVELOPER v19.2',
/* originating_system */ 'Autodesk Translation Framework v11.17.0.187',

/* authorisation */ '');

FILE_SCHEMA (('AUTOMOTIVE_DESIGN { 1 0 10303 214 3 1 1 }'));
ENDSEC;

DATA;
#10=MECHANICAL_DESIGN_GEOMETRIC_PRESENTATION_REPRESENTATION('',(#35,#36,
#37,#38,#39),#440);
#11=ITEM_DEFINED_TRANSFORMATION($,$,#262,#290);
#12=ITEM_DEFINED_TRANSFORMATION($,$,#269,#291);
#13=(
REPRESENTATION_RELATIONSHIP($,$,#454,#453)
REPRESENTATION_RELATIONSHIP_WITH_TRANSFORMATION(#11)
SHAPE_REPRESENTATION_RELATIONSHIP()
);
#14=(
REPRESENTATION_RELATIONSHIP($,$,#455,#453)
REPRESENTATION_RELATIONSHIP_WITH_TRANSFORMATION(#12)
SHAPE_REPRESENTATION_RELATIONSHIP()
);
#15=CONTEXT_DEPENDENT_SHAPE_REPRESENTATION(#13,#451);
#16=CONTEXT_DEPENDENT_SHAPE_REPRESENTATION(#14,#452);
#17=NEXT_ASSEMBLY_USAGE_OCCURRENCE('Body:1','Body:1','Body:1',#457,#458,
'Body:1');
#18=NEXT_ASSEMBLY_USAGE_OCCURRENCE('Pins:1','Pins:1','Pins:1',#457,#459,
'Pins:1');
#19=CIRCLE('',#271,0.4);
#20=CIRCLE('',#272,0.4);
#21=CIRCLE('',#276,0.4);
#22=CIRCLE('',#277,0.4);
#23=CIRCLE('',#281,0.4);
#24=CIRCLE('',#282,0.4);
#25=CIRCLE('',#286,0.4);
#26=CIRCLE('',#287,0.4);
#27=CYLINDRICAL_SURFACE('',#270,0.4);
#28=CYLINDRICAL_SURFACE('',#275,0.4);
#29=CYLINDRICAL_SURFACE('',#280,0.4);
#30=CYLINDRICAL_SURFACE('',#285,0.4);
#31=SHAPE_REPRESENTATION_RELATIONSHIP('SRR','None',#454,#33);
#32=SHAPE_REPRESENTATION_RELATIONSHIP('SRR','None',#455,#34);
#33=ADVANCED_BREP_SHAPE_REPRESENTATION('',(#40),#438);
#34=ADVANCED_BREP_SHAPE_REPRESENTATION('',(#41,#42,#43,#44),#439);
#35=STYLED_ITEM('',(#473),#40);
#36=STYLED_ITEM('',(#472),#41);
#37=STYLED_ITEM('',(#472),#42);
#38=STYLED_ITEM('',(#472),#43);
#39=STYLED_ITEM('',(#472),#44);
#40=MANIFOLD_SOLID_BREP('Body1',#233);
#41=MANIFOLD_SOLID_BREP('Body1',#234);
#42=MANIFOLD_SOLID_BREP('Body2',#235);
#43=MANIFOLD_SOLID_BREP('Body3',#236);
#44=MANIFOLD_SOLID_BREP('Body4',#237);
#45=FACE_OUTER_BOUND('',#63,.T.);
#46=FACE_OUTER_BOUND('',#64,.T.);
#47=FACE_OUTER_BOUND('',#65,.T.);
#48=FACE_OUTER_BOUND('',#66,.T.);
#49=FACE_OUTER_BOUND('',#67,.T.);
#50=FACE_OUTER_BOUND('',#68,.T.);
#51=FACE_OUTER_BOUND('',#69,.T.);
#52=FACE_OUTER_BOUND('',#70,.T.);
#53=FACE_OUTER_BOUND('',#71,.T.);
#54=FACE_OUTER_BOUND('',#72,.T.);
#55=FACE_OUTER_BOUND('',#73,.T.);
#56=FACE_OUTER_BOUND('',#74,.T.);
#57=FACE_OUTER_BOUND('',#75,.T.);
#58=FACE_OUTER_BOUND('',#76,.T.);
#59=FACE_OUTER_BOUND('',#77,.T.);
#60=FACE_OUTER_BOUND('',#78,.T.);
#61=FACE_OUTER_BOUND('',#79,.T.);
#62=FACE_OUTER_BOUND('',#80,.T.);
#63=EDGE_LOOP('',(#153,#154,#155,#156));
#64=EDGE_LOOP('',(#157,#158,#159,#160));
#65=EDGE_LOOP('',(#161,#162,#163,#164));
#66=EDGE_LOOP('',(#165,#166,#167,#168));
#67=EDGE_LOOP('',(#169,#170,#171,#172));
#68=EDGE_LOOP('',(#173,#174,#175,#176));
#69=EDGE_LOOP('',(#177,#178,#179,#180));
#70=EDGE_LOOP('',(#181));
#71=EDGE_LOOP('',(#182));
#72=EDGE_LOOP('',(#183,#184,#185,#186));
#73=EDGE_LOOP('',(#187));
#74=EDGE_LOOP('',(#188));
#75=EDGE_LOOP('',(#189,#190,#191,#192));
#76=EDGE_LOOP('',(#193));
#77=EDGE_LOOP('',(#194));
#78=EDGE_LOOP('',(#195,#196,#197,#198));
#79=EDGE_LOOP('',(#199));
#80=EDGE_LOOP('',(#200));
#81=LINE('',#375,#97);
#82=LINE('',#377,#98);
#83=LINE('',#379,#99);
#84=LINE('',#380,#100);
#85=LINE('',#383,#101);
#86=LINE('',#385,#102);
#87=LINE('',#386,#103);
#88=LINE('',#389,#104);
#89=LINE('',#391,#105);
#90=LINE('',#392,#106);
#91=LINE('',#394,#107);
#92=LINE('',#395,#108);
#93=LINE('',#403,#109);
#94=LINE('',#411,#110);
#95=LINE('',#419,#111);
#96=LINE('',#427,#112);
#97=VECTOR('',#298,10.);
#98=VECTOR('',#299,10.);
#99=VECTOR('',#300,10.);
#100=VECTOR('',#301,10.);
#101=VECTOR('',#304,10.);
#102=VECTOR('',#305,10.);
#103=VECTOR('',#306,10.);
#104=VECTOR('',#309,10.);
#105=VECTOR('',#310,10.);
#106=VECTOR('',#311,10.);
#107=VECTOR('',#314,10.);
#108=VECTOR('',#315,10.);
#109=VECTOR('',#326,0.4);
#110=VECTOR('',#337,0.4);
#111=VECTOR('',#348,0.4);
#112=VECTOR('',#359,0.4);
#113=VERTEX_POINT('',#373);
#114=VERTEX_POINT('',#374);
#115=VERTEX_POINT('',#376);
#116=VERTEX_POINT('',#378);
#117=VERTEX_POINT('',#382);
#118=VERTEX_POINT('',#384);
#119=VERTEX_POINT('',#388);
#120=VERTEX_POINT('',#390);
#121=VERTEX_POINT('',#400);
#122=VERTEX_POINT('',#402);
#123=VERTEX_POINT('',#408);
#124=VERTEX_POINT('',#410);
#125=VERTEX_POINT('',#416);
#126=VERTEX_POINT('',#418);
#127=VERTEX_POINT('',#424);
#128=VERTEX_POINT('',#426);
#129=EDGE_CURVE('',#113,#114,#81,.T.);
#130=EDGE_CURVE('',#114,#115,#82,.T.);
#131=EDGE_CURVE('',#116,#115,#83,.T.);
#132=EDGE_CURVE('',#113,#116,#84,.T.);
#133=EDGE_CURVE('',#117,#113,#85,.T.);
#134=EDGE_CURVE('',#118,#116,#86,.T.);
#135=EDGE_CURVE('',#117,#118,#87,.T.);
#136=EDGE_CURVE('',#119,#117,#88,.T.);
#137=EDGE_CURVE('',#120,#118,#89,.T.);
#138=EDGE_CURVE('',#119,#120,#90,.T.);
#139=EDGE_CURVE('',#114,#119,#91,.T.);
#140=EDGE_CURVE('',#115,#120,#92,.T.);
#141=EDGE_CURVE('',#121,#121,#19,.T.);
#142=EDGE_CURVE('',#121,#122,#93,.T.);
#143=EDGE_CURVE('',#122,#122,#20,.T.);
#144=EDGE_CURVE('',#123,#123,#21,.T.);
#145=EDGE_CURVE('',#123,#124,#94,.T.);
#146=EDGE_CURVE('',#124,#124,#22,.T.);
#147=EDGE_CURVE('',#125,#125,#23,.T.);
#148=EDGE_CURVE('',#125,#126,#95,.T.);
#149=EDGE_CURVE('',#126,#126,#24,.T.);
#150=EDGE_CURVE('',#127,#127,#25,.T.);
#151=EDGE_CURVE('',#127,#128,#96,.T.);
#152=EDGE_CURVE('',#128,#128,#26,.T.);
#153=ORIENTED_EDGE('',*,*,#129,.T.);
#154=ORIENTED_EDGE('',*,*,#130,.T.);
#155=ORIENTED_EDGE('',*,*,#131,.F.);
#156=ORIENTED_EDGE('',*,*,#132,.F.);
#157=ORIENTED_EDGE('',*,*,#133,.T.);
#158=ORIENTED_EDGE('',*,*,#132,.T.);
#159=ORIENTED_EDGE('',*,*,#134,.F.);
#160=ORIENTED_EDGE('',*,*,#135,.F.);
#161=ORIENTED_EDGE('',*,*,#136,.T.);
#162=ORIENTED_EDGE('',*,*,#135,.T.);
#163=ORIENTED_EDGE('',*,*,#137,.F.);
#164=ORIENTED_EDGE('',*,*,#138,.F.);
#165=ORIENTED_EDGE('',*,*,#139,.T.);
#166=ORIENTED_EDGE('',*,*,#138,.T.);
#167=ORIENTED_EDGE('',*,*,#140,.F.);
#168=ORIENTED_EDGE('',*,*,#130,.F.);
#169=ORIENTED_EDGE('',*,*,#140,.T.);
#170=ORIENTED_EDGE('',*,*,#137,.T.);
#171=ORIENTED_EDGE('',*,*,#134,.T.);
#172=ORIENTED_EDGE('',*,*,#131,.T.);
#173=ORIENTED_EDGE('',*,*,#139,.F.);
#174=ORIENTED_EDGE('',*,*,#129,.F.);
#175=ORIENTED_EDGE('',*,*,#133,.F.);
#176=ORIENTED_EDGE('',*,*,#136,.F.);
#177=ORIENTED_EDGE('',*,*,#141,.F.);
#178=ORIENTED_EDGE('',*,*,#142,.T.);
#179=ORIENTED_EDGE('',*,*,#143,.T.);
#180=ORIENTED_EDGE('',*,*,#142,.F.);
#181=ORIENTED_EDGE('',*,*,#141,.T.);
#182=ORIENTED_EDGE('',*,*,#143,.F.);
#183=ORIENTED_EDGE('',*,*,#144,.F.);
#184=ORIENTED_EDGE('',*,*,#145,.T.);
#185=ORIENTED_EDGE('',*,*,#146,.T.);
#186=ORIENTED_EDGE('',*,*,#145,.F.);
#187=ORIENTED_EDGE('',*,*,#144,.T.);
#188=ORIENTED_EDGE('',*,*,#146,.F.);
#189=ORIENTED_EDGE('',*,*,#147,.F.);
#190=ORIENTED_EDGE('',*,*,#148,.T.);
#191=ORIENTED_EDGE('',*,*,#149,.T.);
#192=ORIENTED_EDGE('',*,*,#148,.F.);
#193=ORIENTED_EDGE('',*,*,#147,.T.);
#194=ORIENTED_EDGE('',*,*,#149,.F.);
#195=ORIENTED_EDGE('',*,*,#150,.F.);
#196=ORIENTED_EDGE('',*,*,#151,.T.);
#197=ORIENTED_EDGE('',*,*,#152,.T.);
#198=ORIENTED_EDGE('',*,*,#151,.F.);
#199=ORIENTED_EDGE('',*,*,#150,.T.);
#200=ORIENTED_EDGE('',*,*,#152,.F.);
#201=PLANE('',#263);
#202=PLANE('',#264);
#203=PLANE('',#265);
#204=PLANE('',#266);
#205=PLANE('',#267);
#206=PLANE('',#268);
#207=PLANE('',#273);
#208=PLANE('',#274);
#209=PLANE('',#278);
#210=PLANE('',#279);
#211=PLANE('',#283);
#212=PLANE('',#284);
#213=PLANE('',#288);
#214=PLANE('',#289);
#215=ADVANCED_FACE('',(#45),#201,.T.);
#216=ADVANCED_FACE('',(#46),#202,.T.);
#217=ADVANCED_FACE('',(#47),#203,.T.);
#218=ADVANCED_FACE('',(#48),#204,.T.);
#219=ADVANCED_FACE('',(#49),#205,.T.);
#220=ADVANCED_FACE('',(#50),#206,.F.);
#221=ADVANCED_FACE('',(#51),#27,.T.);
#222=ADVANCED_FACE('',(#52),#207,.T.);
#223=ADVANCED_FACE('',(#53),#208,.F.);
#224=ADVANCED_FACE('',(#54),#28,.T.);
#225=ADVANCED_FACE('',(#55),#209,.T.);
#226=ADVANCED_FACE('',(#56),#210,.F.);
#227=ADVANCED_FACE('',(#57),#29,.T.);
#228=ADVANCED_FACE('',(#58),#211,.T.);
#229=ADVANCED_FACE('',(#59),#212,.F.);
#230=ADVANCED_FACE('',(#60),#30,.T.);
#231=ADVANCED_FACE('',(#61),#213,.T.);
#232=ADVANCED_FACE('',(#62),#214,.F.);
#233=CLOSED_SHELL('',(#215,#216,#217,#218,#219,#220));
#234=CLOSED_SHELL('',(#221,#222,#223));
#235=CLOSED_SHELL('',(#224,#225,#226));
#236=CLOSED_SHELL('',(#227,#228,#229));
#237=CLOSED_SHELL('',(#230,#231,#232));
#238=DERIVED_UNIT_ELEMENT(#242,1.);
#239=DERIVED_UNIT_ELEMENT(#442,-3.);
#240=DERIVED_UNIT_ELEMENT(#242,1.);
#241=DERIVED_UNIT_ELEMENT(#442,-3.);
#242=(
MASS_UNIT()
NAMED_UNIT(*)
SI_UNIT(.KILO.,.GRAM.)
);
#243=DERIVED_UNIT((#238,#239));
#244=DERIVED_UNIT((#240,#241));
#245=MEASURE_REPRESENTATION_ITEM('density measure',
POSITIVE_RATIO_MEASURE(7850.),#243);
#246=MEASURE_REPRESENTATION_ITEM('density measure',
POSITIVE_RATIO_MEASURE(7850.),#244);
#247=PROPERTY_DEFINITION_REPRESENTATION(#257,#251);
#248=PROPERTY_DEFINITION_REPRESENTATION(#258,#252);
#249=PROPERTY_DEFINITION_REPRESENTATION(#259,#253);
#250=PROPERTY_DEFINITION_REPRESENTATION(#260,#254);
#251=REPRESENTATION('material name',(#255),#438);
#252=REPRESENTATION('density',(#245),#438);
#253=REPRESENTATION('material name',(#256),#439);
#254=REPRESENTATION('density',(#246),#439);
#255=DESCRIPTIVE_REPRESENTATION_ITEM('Steel','Steel');
#256=DESCRIPTIVE_REPRESENTATION_ITEM('Steel','Steel');
#257=PROPERTY_DEFINITION('material property','material name',#458);
#258=PROPERTY_DEFINITION('material property','density of part',#458);
#259=PROPERTY_DEFINITION('material property','material name',#459);
#260=PROPERTY_DEFINITION('material property','density of part',#459);
#261=AXIS2_PLACEMENT_3D('placement',#370,#292,#293);
#262=AXIS2_PLACEMENT_3D('placement',#371,#294,#295);
#263=AXIS2_PLACEMENT_3D('',#372,#296,#297);
#264=AXIS2_PLACEMENT_3D('',#381,#302,#303);
#265=AXIS2_PLACEMENT_3D('',#387,#307,#308);
#266=AXIS2_PLACEMENT_3D('',#393,#312,#313);
#267=AXIS2_PLACEMENT_3D('',#396,#316,#317);
#268=AXIS2_PLACEMENT_3D('',#397,#318,#319);
#269=AXIS2_PLACEMENT_3D('placement',#398,#320,#321);
#270=AXIS2_PLACEMENT_3D('',#399,#322,#323);
#271=AXIS2_PLACEMENT_3D('',#401,#324,#325);
#272=AXIS2_PLACEMENT_3D('',#404,#327,#328);
#273=AXIS2_PLACEMENT_3D('',#405,#329,#330);
#274=AXIS2_PLACEMENT_3D('',#406,#331,#332);
#275=AXIS2_PLACEMENT_3D('',#407,#333,#334);
#276=AXIS2_PLACEMENT_3D('',#409,#335,#336);
#277=AXIS2_PLACEMENT_3D('',#412,#338,#339);
#278=AXIS2_PLACEMENT_3D('',#413,#340,#341);
#279=AXIS2_PLACEMENT_3D('',#414,#342,#343);
#280=AXIS2_PLACEMENT_3D('',#415,#344,#345);
#281=AXIS2_PLACEMENT_3D('',#417,#346,#347);
#282=AXIS2_PLACEMENT_3D('',#420,#349,#350);
#283=AXIS2_PLACEMENT_3D('',#421,#351,#352);
#284=AXIS2_PLACEMENT_3D('',#422,#353,#354);
#285=AXIS2_PLACEMENT_3D('',#423,#355,#356);
#286=AXIS2_PLACEMENT_3D('',#425,#357,#358);
#287=AXIS2_PLACEMENT_3D('',#428,#360,#361);
#288=AXIS2_PLACEMENT_3D('',#429,#362,#363);
#289=AXIS2_PLACEMENT_3D('',#430,#364,#365);
#290=AXIS2_PLACEMENT_3D('',#431,#366,#367);
#291=AXIS2_PLACEMENT_3D('',#432,#368,#369);
#292=DIRECTION('axis',(0.,0.,1.));
#293=DIRECTION('refdir',(1.,0.,0.));
#294=DIRECTION('axis',(0.,0.,1.));
#295=DIRECTION('refdir',(1.,0.,0.));
#296=DIRECTION('center_axis',(0.,-1.,0.));
#297=DIRECTION('ref_axis',(1.,0.,0.));
#298=DIRECTION('',(1.,0.,0.));
#299=DIRECTION('',(0.,0.,1.));
#300=DIRECTION('',(1.,0.,0.));
#301=DIRECTION('',(0.,0.,1.));
#302=DIRECTION('center_axis',(-1.,0.,0.));
#303=DIRECTION('ref_axis',(0.,-1.,0.));
#304=DIRECTION('',(0.,-1.,0.));
#305=DIRECTION('',(0.,-1.,0.));
#306=DIRECTION('',(0.,0.,1.));
#307=DIRECTION('center_axis',(0.,1.,0.));
#308=DIRECTION('ref_axis',(-1.,0.,0.));
#309=DIRECTION('',(-1.,0.,0.));
#310=DIRECTION('',(-1.,0.,0.));
#311=DIRECTION('',(0.,0.,1.));
#312=DIRECTION('center_axis',(1.,0.,0.));
#313=DIRECTION('ref_axis',(0.,1.,0.));
#314=DIRECTION('',(0.,1.,0.));
#315=DIRECTION('',(0.,1.,0.));
#316=DIRECTION('center_axis',(0.,0.,1.));
#317=DIRECTION('ref_axis',(1.,0.,0.));
#318=DIRECTION('center_axis',(0.,0.,1.));
#319=DIRECTION('ref_axis',(1.,0.,0.));
#320=DIRECTION('axis',(0.,0.,1.));
#321=DIRECTION('refdir',(1.,0.,0.));
#322=DIRECTION('center_axis',(0.,0.,-1.));
#323=DIRECTION('ref_axis',(1.,0.,0.));
#324=DIRECTION('center_axis',(0.,0.,-1.));
#325=DIRECTION('ref_axis',(1.,0.,0.));
#326=DIRECTION('',(0.,0.,1.));
#327=DIRECTION('center_axis',(0.,0.,-1.));
#328=DIRECTION('ref_axis',(1.,0.,0.));
#329=DIRECTION('center_axis',(0.,0.,-1.));
#330=DIRECTION('ref_axis',(1.,0.,0.));
#331=DIRECTION('center_axis',(0.,0.,-1.));
#332=DIRECTION('ref_axis',(1.,0.,0.));
#333=DIRECTION('center_axis',(0.,0.,-1.));
#334=DIRECTION('ref_axis',(1.,0.,0.));
#335=DIRECTION('center_axis',(0.,0.,-1.));
#336=DIRECTION('ref_axis',(1.,0.,0.));
#337=DIRECTION('',(0.,0.,1.));
#338=DIRECTION('center_axis',(0.,0.,-1.));
#339=DIRECTION('ref_axis',(1.,0.,0.));
#340=DIRECTION('center_axis',(0.,0.,-1.));
#341=DIRECTION('ref_axis',(1.,0.,0.));
#342=DIRECTION('center_axis',(0.,0.,-1.));
#343=DIRECTION('ref_axis',(1.,0.,0.));
#344=DIRECTION('center_axis',(0.,0.,-1.));
#345=DIRECTION('ref_axis',(1.,0.,0.));
#346=DIRECTION('center_axis',(0.,0.,-1.));
#347=DIRECTION('ref_axis',(1.,0.,0.));
#348=DIRECTION('',(0.,0.,1.));
#349=DIRECTION('center_axis',(0.,0.,-1.));
#350=DIRECTION('ref_axis',(1.,0.,0.));
#351=DIRECTION('center_axis',(0.,0.,-1.));
#352=DIRECTION('ref_axis',(1.,0.,0.));
#353=DIRECTION('center_axis',(0.,0.,-1.));
#354=DIRECTION('ref_axis',(1.,0.,0.));
#355=DIRECTION('center_axis',(0.,0.,-1.));
#356=DIRECTION('ref_axis',(1.,0.,0.));
#357=DIRECTION('center_axis',(0.,0.,-1.));
#358=DIRECTION('ref_axis',(1.,0.,0.));
#359=DIRECTION('',(0.,0.,1.));
#360=DIRECTION('center_axis',(0.,0.,-1.));
#361=DIRECTION('ref_axis',(1.,0.,0.));
#362=DIRECTION('center_axis',(0.,0.,-1.));
#363=DIRECTION('ref_axis',(1.,0.,0.));
#364=DIRECTION('center_axis',(0.,0.,-1.));
#365=DIRECTION('ref_axis',(1.,0.,0.));
#366=DIRECTION('',(0.,0.,1.));
#367=DIRECTION('',(1.,0.,0.));
#368=DIRECTION('',(0.,0.,1.));
#369=DIRECTION('',(1.,0.,0.));
#370=CARTESIAN_POINT('',(0.,0.,0.));
#371=CARTESIAN_POINT('',(0.,0.,0.));
#372=CARTESIAN_POINT('Origin',(-19.,-11.5,0.));
#373=CARTESIAN_POINT('',(-19.,-11.5,0.));
#374=CARTESIAN_POINT('',(19.,-11.5,0.));
#375=CARTESIAN_POINT('',(-19.,-11.5,0.));
#376=CARTESIAN_POINT('',(19.,-11.5,18.));
#377=CARTESIAN_POINT('',(19.,-11.5,0.));
#378=CARTESIAN_POINT('',(-19.,-11.5,18.));
#379=CARTESIAN_POINT('',(-19.,-11.5,18.));
#380=CARTESIAN_POINT('',(-19.,-11.5,0.));
#381=CARTESIAN_POINT('Origin',(-19.,11.5,0.));
#382=CARTESIAN_POINT('',(-19.,11.5,0.));
#383=CARTESIAN_POINT('',(-19.,11.5,0.));
#384=CARTESIAN_POINT('',(-19.,11.5,18.));
#385=CARTESIAN_POINT('',(-19.,11.5,18.));
#386=CARTESIAN_POINT('',(-19.,11.5,0.));
#387=CARTESIAN_POINT('Origin',(19.,11.5,0.));
#388=CARTESIAN_POINT('',(19.,11.5,0.));
#389=CARTESIAN_POINT('',(19.,11.5,0.));
#390=CARTESIAN_POINT('',(19.,11.5,18.));
#391=CARTESIAN_POINT('',(19.,11.5,18.));
#392=CARTESIAN_POINT('',(19.,11.5,0.));
#393=CARTESIAN_POINT('Origin',(19.,-11.5,0.));
#394=CARTESIAN_POINT('',(19.,-11.5,0.));
#395=CARTESIAN_POINT('',(19.,-11.5,18.));
#396=CARTESIAN_POINT('Origin',(0.,0.,18.));
#397=CARTESIAN_POINT('Origin',(0.,0.,0.));
#398=CARTESIAN_POINT('',(0.,0.,0.));
#399=CARTESIAN_POINT('Origin',(-16.8,3.,0.));
#400=CARTESIAN_POINT('',(-17.2,3.,-5.));
#401=CARTESIAN_POINT('Origin',(-16.8,3.,-5.));
#402=CARTESIAN_POINT('',(-17.2,3.,0.));
#403=CARTESIAN_POINT('',(-17.2,3.,0.));
#404=CARTESIAN_POINT('Origin',(-16.8,3.,0.));
#405=CARTESIAN_POINT('Origin',(-16.8,3.,-5.));
#406=CARTESIAN_POINT('Origin',(-16.8,3.,0.));
#407=CARTESIAN_POINT('Origin',(16.8,-9.,0.));
#408=CARTESIAN_POINT('',(16.4,-9.,-5.));
#409=CARTESIAN_POINT('Origin',(16.8,-9.,-5.));
#410=CARTESIAN_POINT('',(16.4,-9.,0.));
#411=CARTESIAN_POINT('',(16.4,-9.,0.));
#412=CARTESIAN_POINT('Origin',(16.8,-9.,0.));
#413=CARTESIAN_POINT('Origin',(16.8,-9.,-5.));
#414=CARTESIAN_POINT('Origin',(16.8,-9.,0.));
#415=CARTESIAN_POINT('Origin',(-16.8,-3.,0.));
#416=CARTESIAN_POINT('',(-17.2,-3.,-5.));
#417=CARTESIAN_POINT('Origin',(-16.8,-3.,-5.));
#418=CARTESIAN_POINT('',(-17.2,-3.,0.));
#419=CARTESIAN_POINT('',(-17.2,-3.,0.));
#420=CARTESIAN_POINT('Origin',(-16.8,-3.,0.));
#421=CARTESIAN_POINT('Origin',(-16.8,-3.,-5.));
#422=CARTESIAN_POINT('Origin',(-16.8,-3.,0.));
#423=CARTESIAN_POINT('Origin',(16.8,9.,0.));
#424=CARTESIAN_POINT('',(16.4,9.,-5.));
#425=CARTESIAN_POINT('Origin',(16.8,9.,-5.));
#426=CARTESIAN_POINT('',(16.4,9.,0.));
#427=CARTESIAN_POINT('',(16.4,9.,0.));
#428=CARTESIAN_POINT('Origin',(16.8,9.,0.));
#429=CARTESIAN_POINT('Origin',(16.8,9.,-5.));
#430=CARTESIAN_POINT('Origin',(16.8,9.,0.));
#431=CARTESIAN_POINT('',(0.,0.,0.));
#432=CARTESIAN_POINT('',(0.,0.,0.));
#433=UNCERTAINTY_MEASURE_WITH_UNIT(LENGTH_MEASURE(0.01),#441,
'DISTANCE_ACCURACY_VALUE',
'Maximum model space distance between geometric entities at asserted c
onnectivities');
#434=UNCERTAINTY_MEASURE_WITH_UNIT(LENGTH_MEASURE(0.01),#441,
'DISTANCE_ACCURACY_VALUE',
'Maximum model space distance between geometric entities at asserted c
onnectivities');
#435=UNCERTAINTY_MEASURE_WITH_UNIT(LENGTH_MEASURE(0.01),#441,
'DISTANCE_ACCURACY_VALUE',
'Maximum model space distance between geometric entities at asserted c
onnectivities');
#436=UNCERTAINTY_MEASURE_WITH_UNIT(LENGTH_MEASURE(0.01),#441,
'DISTANCE_ACCURACY_VALUE',
'Maximum model space distance between geometric entities at asserted c
onnectivities');
#437=(
GEOMETRIC_REPRESENTATION_CONTEXT(3)
GLOBAL_UNCERTAINTY_ASSIGNED_CONTEXT((#433))
GLOBAL_UNIT_ASSIGNED_CONTEXT((#441,#443,#444))
REPRESENTATION_CONTEXT('','3D')
);
#438=(
GEOMETRIC_REPRESENTATION_CONTEXT(3)
GLOBAL_UNCERTAINTY_ASSIGNED_CONTEXT((#434))
GLOBAL_UNIT_ASSIGNED_CONTEXT((#441,#443,#444))
REPRESENTATION_CONTEXT('','3D')
);
#439=(
GEOMETRIC_REPRESENTATION_CONTEXT(3)
GLOBAL_UNCERTAINTY_ASSIGNED_CONTEXT((#435))
GLOBAL_UNIT_ASSIGNED_CONTEXT((#441,#443,#444))
REPRESENTATION_CONTEXT('','3D')
);
#440=(
GEOMETRIC_REPRESENTATION_CONTEXT(3)
GLOBAL_UNCERTAINTY_ASSIGNED_CONTEXT((#436))
GLOBAL_UNIT_ASSIGNED_CONTEXT((#441,#443,#444))
REPRESENTATION_CONTEXT('','3D')
);
#441=(
LENGTH_UNIT()
NAMED_UNIT(*)
SI_UNIT(.MILLI.,.METRE.)
);
#442=(
LENGTH_UNIT()
NAMED_UNIT(*)
SI_UNIT($,.METRE.)
);
#443=(
NAMED_UNIT(*)
PLANE_ANGLE_UNIT()
SI_UNIT($,.RADIAN.)
);
#444=(
NAMED_UNIT(*)
SI_UNIT($,.STERADIAN.)
SOLID_ANGLE_UNIT()
);
#445=SHAPE_DEFINITION_REPRESENTATION(#448,#453);
#446=SHAPE_DEFINITION_REPRESENTATION(#449,#454);
#447=SHAPE_DEFINITION_REPRESENTATION(#450,#455);
#448=PRODUCT_DEFINITION_SHAPE('',$,#457);
#449=PRODUCT_DEFINITION_SHAPE('',$,#458);
#450=PRODUCT_DEFINITION_SHAPE('',$,#459);
#451=PRODUCT_DEFINITION_SHAPE($,$,#17);
#452=PRODUCT_DEFINITION_SHAPE($,$,#18);
#453=SHAPE_REPRESENTATION('',(#261,#290,#291),#437);
#454=SHAPE_REPRESENTATION('',(#262),#438);
#455=SHAPE_REPRESENTATION('',(#269),#439);
#456=PRODUCT_DEFINITION_CONTEXT('part definition',#467,'design');
#457=PRODUCT_DEFINITION('Hi-Link_HLK_5W','Hi-Link_HLK_5W v4',#460,#456);
#458=PRODUCT_DEFINITION('Body','Body',#461,#456);
#459=PRODUCT_DEFINITION('Pins','Pins',#462,#456);
#460=PRODUCT_DEFINITION_FORMATION('',$,#469);
#461=PRODUCT_DEFINITION_FORMATION('',$,#470);
#462=PRODUCT_DEFINITION_FORMATION('',$,#471);
#463=PRODUCT_RELATED_PRODUCT_CATEGORY('Hi-Link_HLK_5W v4',
'Hi-Link_HLK_5W v4',(#469));
#464=PRODUCT_RELATED_PRODUCT_CATEGORY('Body','Body',(#470));
#465=PRODUCT_RELATED_PRODUCT_CATEGORY('Pins','Pins',(#471));
#466=APPLICATION_PROTOCOL_DEFINITION('international standard',
'automotive_design',2009,#467);
#467=APPLICATION_CONTEXT(
'Core Data for Automotive Mechanical Design Process');
#468=PRODUCT_CONTEXT('part definition',#467,'mechanical');
#469=PRODUCT('Hi-Link_HLK_5W','Hi-Link_HLK_5W v4',$,(#468));
#470=PRODUCT('Body','Body',$,(#468));
#471=PRODUCT('Pins','Pins',$,(#468));
#472=PRESENTATION_STYLE_ASSIGNMENT((#474));
#473=PRESENTATION_STYLE_ASSIGNMENT((#475));
#474=SURFACE_STYLE_USAGE(.BOTH.,#476);
#475=SURFACE_STYLE_USAGE(.BOTH.,#477);
#476=SURFACE_SIDE_STYLE('',(#478));
#477=SURFACE_SIDE_STYLE('',(#479));
#478=SURFACE_STYLE_FILL_AREA(#480);
#479=SURFACE_STYLE_FILL_AREA(#481);
#480=FILL_AREA_STYLE('Steel - Satin',(#482));
#481=FILL_AREA_STYLE('Plastic - Glossy (Black)',(#483));
#482=FILL_AREA_STYLE_COLOUR('Steel - Satin',#484);
#483=FILL_AREA_STYLE_COLOUR('Plastic - Glossy (Black)',#485);
#484=COLOUR_RGB('Steel - Satin',0.627450980392157,0.627450980392157,0.627450980392157);
#485=COLOUR_RGB('Plastic - Glossy (Black)',0.0980392156862745,0.0980392156862745,
0.0980392156862745);
ENDSEC;
END-ISO-10303-21;
