ISO-10303-21;
HEADER;
/* Generated by software containing ST-Developer
 * from STEP Tools, Inc. (www.steptools.com) 
 */

FILE_DESCRIPTION(
/* description */ (''),
/* implementation_level */ '2;1');

FILE_NAME(
/* name */ 
'G:/ownCloud/Projects/kicad_libs/my_additions.3d/Buzzer_D9_H5.5.step',
/* time_stamp */ '2021-03-11T20:45:51+03:00',
/* author */ (''),
/* organization */ (''),
/* preprocessor_version */ 'ST-DEVELOPER v18.1',
/* originating_system */ 'Autodesk Translation Framework v9.10.0.1330',

/* authorisation */ '');

FILE_SCHEMA (('AUTOMOTIVE_DESIGN { 1 0 10303 214 3 1 1 }'));
ENDSEC;

DATA;
#10=MECHANICAL_DESIGN_GEOMETRIC_PRESENTATION_REPRESENTATION('',(#155,#156,
#157,#158,#159,#160),#322);
#11=SHAPE_REPRESENTATION_RELATIONSHIP('SRR','None',#329,#12);
#12=ADVANCED_BREP_SHAPE_REPRESENTATION('',(#13),#321);
#13=MANIFOLD_SOLID_BREP('Body1',#174);
#14=CONICAL_SURFACE('',#209,0.8,0.785398163397448);
#15=TOROIDAL_SURFACE('',#202,4.25,0.25);
#16=FACE_BOUND('',#56,.T.);
#17=FACE_BOUND('',#57,.T.);
#18=FACE_BOUND('',#59,.T.);
#19=FACE_BOUND('',#62,.T.);
#20=LINE('',#283,#26);
#21=LINE('',#287,#27);
#22=LINE('',#293,#28);
#23=LINE('',#309,#29);
#24=LINE('',#312,#30);
#25=LINE('',#316,#31);
#26=VECTOR('',#226,0.3);
#27=VECTOR('',#231,0.3);
#28=VECTOR('',#238,4.15);
#29=VECTOR('',#261,4.5);
#30=VECTOR('',#264,0.8);
#31=VECTOR('',#269,0.75);
#32=CYLINDRICAL_SURFACE('',#192,0.3);
#33=CYLINDRICAL_SURFACE('',#194,0.3);
#34=CYLINDRICAL_SURFACE('',#196,4.15);
#35=CYLINDRICAL_SURFACE('',#208,4.5);
#36=CYLINDRICAL_SURFACE('',#211,0.75);
#37=FACE_OUTER_BOUND('',#50,.T.);
#38=FACE_OUTER_BOUND('',#51,.T.);
#39=FACE_OUTER_BOUND('',#52,.T.);
#40=FACE_OUTER_BOUND('',#53,.T.);
#41=FACE_OUTER_BOUND('',#54,.T.);
#42=FACE_OUTER_BOUND('',#55,.T.);
#43=FACE_OUTER_BOUND('',#58,.T.);
#44=FACE_OUTER_BOUND('',#60,.T.);
#45=FACE_OUTER_BOUND('',#61,.T.);
#46=FACE_OUTER_BOUND('',#63,.T.);
#47=FACE_OUTER_BOUND('',#64,.T.);
#48=FACE_OUTER_BOUND('',#65,.T.);
#49=FACE_OUTER_BOUND('',#66,.T.);
#50=EDGE_LOOP('',(#111));
#51=EDGE_LOOP('',(#112));
#52=EDGE_LOOP('',(#113,#114,#115,#116));
#53=EDGE_LOOP('',(#117,#118,#119,#120));
#54=EDGE_LOOP('',(#121,#122,#123,#124));
#55=EDGE_LOOP('',(#125));
#56=EDGE_LOOP('',(#126));
#57=EDGE_LOOP('',(#127));
#58=EDGE_LOOP('',(#128));
#59=EDGE_LOOP('',(#129));
#60=EDGE_LOOP('',(#130,#131,#132,#133));
#61=EDGE_LOOP('',(#134));
#62=EDGE_LOOP('',(#135));
#63=EDGE_LOOP('',(#136,#137,#138,#139));
#64=EDGE_LOOP('',(#140,#141,#142,#143));
#65=EDGE_LOOP('',(#144,#145,#146,#147));
#66=EDGE_LOOP('',(#148));
#67=CIRCLE('',#189,0.3);
#68=CIRCLE('',#191,0.3);
#69=CIRCLE('',#193,0.3);
#70=CIRCLE('',#195,0.3);
#71=CIRCLE('',#197,4.15);
#72=CIRCLE('',#198,4.15);
#73=CIRCLE('',#201,4.5);
#74=CIRCLE('',#203,4.25);
#75=CIRCLE('',#204,0.25);
#76=CIRCLE('',#205,4.5);
#77=CIRCLE('',#207,0.85);
#78=CIRCLE('',#210,0.75);
#79=CIRCLE('',#212,0.75);
#80=VERTEX_POINT('',#276);
#81=VERTEX_POINT('',#279);
#82=VERTEX_POINT('',#282);
#83=VERTEX_POINT('',#286);
#84=VERTEX_POINT('',#290);
#85=VERTEX_POINT('',#292);
#86=VERTEX_POINT('',#297);
#87=VERTEX_POINT('',#300);
#88=VERTEX_POINT('',#302);
#89=VERTEX_POINT('',#306);
#90=VERTEX_POINT('',#311);
#91=VERTEX_POINT('',#315);
#92=EDGE_CURVE('',#80,#80,#67,.T.);
#93=EDGE_CURVE('',#81,#81,#68,.T.);
#94=EDGE_CURVE('',#80,#82,#20,.T.);
#95=EDGE_CURVE('',#82,#82,#69,.T.);
#96=EDGE_CURVE('',#81,#83,#21,.T.);
#97=EDGE_CURVE('',#83,#83,#70,.T.);
#98=EDGE_CURVE('',#84,#84,#71,.T.);
#99=EDGE_CURVE('',#84,#85,#22,.T.);
#100=EDGE_CURVE('',#85,#85,#72,.T.);
#101=EDGE_CURVE('',#86,#86,#73,.T.);
#102=EDGE_CURVE('',#87,#87,#74,.T.);
#103=EDGE_CURVE('',#87,#88,#75,.T.);
#104=EDGE_CURVE('',#88,#88,#76,.T.);
#105=EDGE_CURVE('',#89,#89,#77,.T.);
#106=EDGE_CURVE('',#88,#86,#23,.T.);
#107=EDGE_CURVE('',#89,#90,#24,.T.);
#108=EDGE_CURVE('',#90,#90,#78,.T.);
#109=EDGE_CURVE('',#90,#91,#25,.T.);
#110=EDGE_CURVE('',#91,#91,#79,.T.);
#111=ORIENTED_EDGE('',*,*,#92,.T.);
#112=ORIENTED_EDGE('',*,*,#93,.T.);
#113=ORIENTED_EDGE('',*,*,#92,.F.);
#114=ORIENTED_EDGE('',*,*,#94,.T.);
#115=ORIENTED_EDGE('',*,*,#95,.T.);
#116=ORIENTED_EDGE('',*,*,#94,.F.);
#117=ORIENTED_EDGE('',*,*,#93,.F.);
#118=ORIENTED_EDGE('',*,*,#96,.T.);
#119=ORIENTED_EDGE('',*,*,#97,.T.);
#120=ORIENTED_EDGE('',*,*,#96,.F.);
#121=ORIENTED_EDGE('',*,*,#98,.F.);
#122=ORIENTED_EDGE('',*,*,#99,.T.);
#123=ORIENTED_EDGE('',*,*,#100,.T.);
#124=ORIENTED_EDGE('',*,*,#99,.F.);
#125=ORIENTED_EDGE('',*,*,#100,.F.);
#126=ORIENTED_EDGE('',*,*,#97,.F.);
#127=ORIENTED_EDGE('',*,*,#95,.F.);
#128=ORIENTED_EDGE('',*,*,#101,.T.);
#129=ORIENTED_EDGE('',*,*,#98,.T.);
#130=ORIENTED_EDGE('',*,*,#102,.T.);
#131=ORIENTED_EDGE('',*,*,#103,.T.);
#132=ORIENTED_EDGE('',*,*,#104,.T.);
#133=ORIENTED_EDGE('',*,*,#103,.F.);
#134=ORIENTED_EDGE('',*,*,#102,.F.);
#135=ORIENTED_EDGE('',*,*,#105,.F.);
#136=ORIENTED_EDGE('',*,*,#104,.F.);
#137=ORIENTED_EDGE('',*,*,#106,.T.);
#138=ORIENTED_EDGE('',*,*,#101,.F.);
#139=ORIENTED_EDGE('',*,*,#106,.F.);
#140=ORIENTED_EDGE('',*,*,#105,.T.);
#141=ORIENTED_EDGE('',*,*,#107,.T.);
#142=ORIENTED_EDGE('',*,*,#108,.T.);
#143=ORIENTED_EDGE('',*,*,#107,.F.);
#144=ORIENTED_EDGE('',*,*,#108,.F.);
#145=ORIENTED_EDGE('',*,*,#109,.T.);
#146=ORIENTED_EDGE('',*,*,#110,.T.);
#147=ORIENTED_EDGE('',*,*,#109,.F.);
#148=ORIENTED_EDGE('',*,*,#110,.F.);
#149=PLANE('',#188);
#150=PLANE('',#190);
#151=PLANE('',#199);
#152=PLANE('',#200);
#153=PLANE('',#206);
#154=PLANE('',#213);
#155=STYLED_ITEM('',(#340),#161);
#156=STYLED_ITEM('',(#340),#162);
#157=STYLED_ITEM('',(#340),#163);
#158=STYLED_ITEM('',(#340),#164);
#159=STYLED_ITEM('',(#340),#173);
#160=STYLED_ITEM('',(#339),#13);
#161=ADVANCED_FACE('',(#37),#149,.T.);
#162=ADVANCED_FACE('',(#38),#150,.T.);
#163=ADVANCED_FACE('',(#39),#32,.T.);
#164=ADVANCED_FACE('',(#40),#33,.T.);
#165=ADVANCED_FACE('',(#41),#34,.F.);
#166=ADVANCED_FACE('',(#42,#16,#17),#151,.T.);
#167=ADVANCED_FACE('',(#43,#18),#152,.T.);
#168=ADVANCED_FACE('',(#44),#15,.T.);
#169=ADVANCED_FACE('',(#45,#19),#153,.T.);
#170=ADVANCED_FACE('',(#46),#35,.T.);
#171=ADVANCED_FACE('',(#47),#14,.F.);
#172=ADVANCED_FACE('',(#48),#36,.F.);
#173=ADVANCED_FACE('',(#49),#154,.T.);
#174=CLOSED_SHELL('',(#161,#162,#163,#164,#165,#166,#167,#168,#169,#170,
#171,#172,#173));
#175=DERIVED_UNIT_ELEMENT(#177,1.);
#176=DERIVED_UNIT_ELEMENT(#324,-3.);
#177=(
MASS_UNIT()
NAMED_UNIT(*)
SI_UNIT(.KILO.,.GRAM.)
);
#178=DERIVED_UNIT((#175,#176));
#179=MEASURE_REPRESENTATION_ITEM('density measure',
POSITIVE_RATIO_MEASURE(7850.),#178);
#180=PROPERTY_DEFINITION_REPRESENTATION(#185,#182);
#181=PROPERTY_DEFINITION_REPRESENTATION(#186,#183);
#182=REPRESENTATION('material name',(#184),#321);
#183=REPRESENTATION('density',(#179),#321);
#184=DESCRIPTIVE_REPRESENTATION_ITEM('Steel','Steel');
#185=PROPERTY_DEFINITION('material property','material name',#331);
#186=PROPERTY_DEFINITION('material property','density of part',#331);
#187=AXIS2_PLACEMENT_3D('placement',#274,#214,#215);
#188=AXIS2_PLACEMENT_3D('',#275,#216,#217);
#189=AXIS2_PLACEMENT_3D('',#277,#218,#219);
#190=AXIS2_PLACEMENT_3D('',#278,#220,#221);
#191=AXIS2_PLACEMENT_3D('',#280,#222,#223);
#192=AXIS2_PLACEMENT_3D('',#281,#224,#225);
#193=AXIS2_PLACEMENT_3D('',#284,#227,#228);
#194=AXIS2_PLACEMENT_3D('',#285,#229,#230);
#195=AXIS2_PLACEMENT_3D('',#288,#232,#233);
#196=AXIS2_PLACEMENT_3D('',#289,#234,#235);
#197=AXIS2_PLACEMENT_3D('',#291,#236,#237);
#198=AXIS2_PLACEMENT_3D('',#294,#239,#240);
#199=AXIS2_PLACEMENT_3D('',#295,#241,#242);
#200=AXIS2_PLACEMENT_3D('',#296,#243,#244);
#201=AXIS2_PLACEMENT_3D('',#298,#245,#246);
#202=AXIS2_PLACEMENT_3D('',#299,#247,#248);
#203=AXIS2_PLACEMENT_3D('',#301,#249,#250);
#204=AXIS2_PLACEMENT_3D('',#303,#251,#252);
#205=AXIS2_PLACEMENT_3D('',#304,#253,#254);
#206=AXIS2_PLACEMENT_3D('',#305,#255,#256);
#207=AXIS2_PLACEMENT_3D('',#307,#257,#258);
#208=AXIS2_PLACEMENT_3D('',#308,#259,#260);
#209=AXIS2_PLACEMENT_3D('',#310,#262,#263);
#210=AXIS2_PLACEMENT_3D('',#313,#265,#266);
#211=AXIS2_PLACEMENT_3D('',#314,#267,#268);
#212=AXIS2_PLACEMENT_3D('',#317,#270,#271);
#213=AXIS2_PLACEMENT_3D('',#318,#272,#273);
#214=DIRECTION('axis',(0.,0.,1.));
#215=DIRECTION('refdir',(1.,0.,0.));
#216=DIRECTION('center_axis',(0.,0.,-1.));
#217=DIRECTION('ref_axis',(1.,0.,0.));
#218=DIRECTION('center_axis',(0.,0.,-1.));
#219=DIRECTION('ref_axis',(1.,0.,0.));
#220=DIRECTION('center_axis',(0.,0.,-1.));
#221=DIRECTION('ref_axis',(1.,0.,0.));
#222=DIRECTION('center_axis',(0.,0.,-1.));
#223=DIRECTION('ref_axis',(1.,0.,0.));
#224=DIRECTION('center_axis',(0.,0.,1.));
#225=DIRECTION('ref_axis',(1.,0.,0.));
#226=DIRECTION('',(0.,0.,1.));
#227=DIRECTION('center_axis',(0.,0.,-1.));
#228=DIRECTION('ref_axis',(1.,0.,0.));
#229=DIRECTION('center_axis',(0.,0.,1.));
#230=DIRECTION('ref_axis',(1.,0.,0.));
#231=DIRECTION('',(0.,0.,1.));
#232=DIRECTION('center_axis',(0.,0.,-1.));
#233=DIRECTION('ref_axis',(1.,0.,0.));
#234=DIRECTION('center_axis',(0.,0.,1.));
#235=DIRECTION('ref_axis',(1.,0.,0.));
#236=DIRECTION('center_axis',(0.,0.,1.));
#237=DIRECTION('ref_axis',(1.,0.,0.));
#238=DIRECTION('',(0.,0.,1.));
#239=DIRECTION('center_axis',(0.,0.,1.));
#240=DIRECTION('ref_axis',(1.,0.,0.));
#241=DIRECTION('center_axis',(0.,0.,-1.));
#242=DIRECTION('ref_axis',(1.,0.,0.));
#243=DIRECTION('center_axis',(0.,0.,-1.));
#244=DIRECTION('ref_axis',(-1.,0.,0.));
#245=DIRECTION('center_axis',(0.,0.,-1.));
#246=DIRECTION('ref_axis',(1.,0.,0.));
#247=DIRECTION('center_axis',(0.,0.,1.));
#248=DIRECTION('ref_axis',(1.,0.,0.));
#249=DIRECTION('center_axis',(0.,0.,-1.));
#250=DIRECTION('ref_axis',(-1.,1.22464679914735E-16,0.));
#251=DIRECTION('center_axis',(1.22464679914735E-16,-1.,0.));
#252=DIRECTION('ref_axis',(-1.,-1.22464679914735E-16,0.));
#253=DIRECTION('center_axis',(0.,0.,1.));
#254=DIRECTION('ref_axis',(-1.,1.22464679914735E-16,0.));
#255=DIRECTION('center_axis',(0.,0.,1.));
#256=DIRECTION('ref_axis',(1.,0.,0.));
#257=DIRECTION('center_axis',(0.,0.,1.));
#258=DIRECTION('ref_axis',(-1.,0.,0.));
#259=DIRECTION('center_axis',(0.,0.,1.));
#260=DIRECTION('ref_axis',(1.,0.,0.));
#261=DIRECTION('',(0.,0.,-1.));
#262=DIRECTION('center_axis',(0.,0.,1.));
#263=DIRECTION('ref_axis',(-1.,0.,0.));
#264=DIRECTION('',(-0.707106781186548,-8.65956056235493E-17,-0.707106781186548));
#265=DIRECTION('center_axis',(0.,0.,-1.));
#266=DIRECTION('ref_axis',(-1.,0.,0.));
#267=DIRECTION('center_axis',(0.,0.,-1.));
#268=DIRECTION('ref_axis',(-1.,0.,0.));
#269=DIRECTION('',(0.,0.,-1.));
#270=DIRECTION('center_axis',(0.,0.,-1.));
#271=DIRECTION('ref_axis',(-1.,0.,0.));
#272=DIRECTION('center_axis',(0.,0.,1.));
#273=DIRECTION('ref_axis',(-1.,0.,0.));
#274=CARTESIAN_POINT('',(0.,0.,0.));
#275=CARTESIAN_POINT('Origin',(2.5,0.,-4.5));
#276=CARTESIAN_POINT('',(2.2,3.67394039744206E-17,-4.5));
#277=CARTESIAN_POINT('Origin',(2.5,0.,-4.5));
#278=CARTESIAN_POINT('Origin',(-2.5,0.,-5.));
#279=CARTESIAN_POINT('',(-2.8,3.67394039744206E-17,-5.));
#280=CARTESIAN_POINT('Origin',(-2.5,0.,-5.));
#281=CARTESIAN_POINT('Origin',(2.5,0.,0.));
#282=CARTESIAN_POINT('',(2.2,3.67394039744206E-17,0.2));
#283=CARTESIAN_POINT('',(2.2,-3.67394039744206E-17,0.));
#284=CARTESIAN_POINT('Origin',(2.5,0.,0.2));
#285=CARTESIAN_POINT('Origin',(-2.5,0.,0.));
#286=CARTESIAN_POINT('',(-2.8,3.67394039744206E-17,0.2));
#287=CARTESIAN_POINT('',(-2.8,-3.67394039744206E-17,0.));
#288=CARTESIAN_POINT('Origin',(-2.5,0.,0.2));
#289=CARTESIAN_POINT('Origin',(0.,0.,0.));
#290=CARTESIAN_POINT('',(-4.15,5.08228421646152E-16,0.));
#291=CARTESIAN_POINT('Origin',(0.,0.,0.));
#292=CARTESIAN_POINT('',(-4.15,5.08228421646152E-16,0.2));
#293=CARTESIAN_POINT('',(-4.15,-5.08228421646152E-16,0.));
#294=CARTESIAN_POINT('Origin',(0.,0.,0.2));
#295=CARTESIAN_POINT('Origin',(0.,0.,0.2));
#296=CARTESIAN_POINT('Origin',(0.,0.,0.));
#297=CARTESIAN_POINT('',(-4.5,-5.51091059616309E-16,0.));
#298=CARTESIAN_POINT('Origin',(0.,0.,0.));
#299=CARTESIAN_POINT('Origin',(0.,0.,5.25));
#300=CARTESIAN_POINT('',(-4.25,-5.20474889637625E-16,5.5));
#301=CARTESIAN_POINT('Origin',(0.,0.,5.5));
#302=CARTESIAN_POINT('',(-4.5,-5.51091059616309E-16,5.25));
#303=CARTESIAN_POINT('Origin',(-4.25,-5.20474889637625E-16,5.25));
#304=CARTESIAN_POINT('Origin',(0.,0.,5.25));
#305=CARTESIAN_POINT('Origin',(0.,0.,5.5));
#306=CARTESIAN_POINT('',(0.85,1.04094977927525E-16,5.5));
#307=CARTESIAN_POINT('Origin',(0.,0.,5.5));
#308=CARTESIAN_POINT('Origin',(0.,0.,2.75));
#309=CARTESIAN_POINT('',(-4.5,-5.51091059616309E-16,2.75));
#310=CARTESIAN_POINT('Origin',(0.,0.,5.45));
#311=CARTESIAN_POINT('',(0.75,-9.18485099360515E-17,5.4));
#312=CARTESIAN_POINT('',(0.8,9.79717439317883E-17,5.45));
#313=CARTESIAN_POINT('Origin',(0.,0.,5.4));
#314=CARTESIAN_POINT('Origin',(0.,0.,5.5));
#315=CARTESIAN_POINT('',(0.75,9.18485099360515E-17,4.));
#316=CARTESIAN_POINT('',(0.75,-9.18485099360515E-17,5.5));
#317=CARTESIAN_POINT('Origin',(0.,0.,4.));
#318=CARTESIAN_POINT('Origin',(0.,0.,4.));
#319=UNCERTAINTY_MEASURE_WITH_UNIT(LENGTH_MEASURE(0.01),#323,
'DISTANCE_ACCURACY_VALUE',
'Maximum model space distance between geometric entities at asserted c
onnectivities');
#320=UNCERTAINTY_MEASURE_WITH_UNIT(LENGTH_MEASURE(0.01),#323,
'DISTANCE_ACCURACY_VALUE',
'Maximum model space distance between geometric entities at asserted c
onnectivities');
#321=(
GEOMETRIC_REPRESENTATION_CONTEXT(3)
GLOBAL_UNCERTAINTY_ASSIGNED_CONTEXT((#319))
GLOBAL_UNIT_ASSIGNED_CONTEXT((#323,#325,#326))
REPRESENTATION_CONTEXT('','3D')
);
#322=(
GEOMETRIC_REPRESENTATION_CONTEXT(3)
GLOBAL_UNCERTAINTY_ASSIGNED_CONTEXT((#320))
GLOBAL_UNIT_ASSIGNED_CONTEXT((#323,#325,#326))
REPRESENTATION_CONTEXT('','3D')
);
#323=(
LENGTH_UNIT()
NAMED_UNIT(*)
SI_UNIT(.MILLI.,.METRE.)
);
#324=(
LENGTH_UNIT()
NAMED_UNIT(*)
SI_UNIT($,.METRE.)
);
#325=(
NAMED_UNIT(*)
PLANE_ANGLE_UNIT()
SI_UNIT($,.RADIAN.)
);
#326=(
NAMED_UNIT(*)
SI_UNIT($,.STERADIAN.)
SOLID_ANGLE_UNIT()
);
#327=SHAPE_DEFINITION_REPRESENTATION(#328,#329);
#328=PRODUCT_DEFINITION_SHAPE('',$,#331);
#329=SHAPE_REPRESENTATION('',(#187),#321);
#330=PRODUCT_DEFINITION_CONTEXT('part definition',#335,'design');
#331=PRODUCT_DEFINITION('Buzzer 9mm','Buzzer 9mm v1',#332,#330);
#332=PRODUCT_DEFINITION_FORMATION('',$,#337);
#333=PRODUCT_RELATED_PRODUCT_CATEGORY('Buzzer 9mm v1','Buzzer 9mm v1',(#337));
#334=APPLICATION_PROTOCOL_DEFINITION('international standard',
'automotive_design',2009,#335);
#335=APPLICATION_CONTEXT(
'Core Data for Automotive Mechanical Design Process');
#336=PRODUCT_CONTEXT('part definition',#335,'mechanical');
#337=PRODUCT('Buzzer 9mm','Buzzer 9mm v1',$,(#336));
#338=PRESENTATION_STYLE_ASSIGNMENT((#341));
#339=PRESENTATION_STYLE_ASSIGNMENT((#342));
#340=PRESENTATION_STYLE_ASSIGNMENT((#343));
#341=SURFACE_STYLE_USAGE(.BOTH.,#344);
#342=SURFACE_STYLE_USAGE(.BOTH.,#345);
#343=SURFACE_STYLE_USAGE(.BOTH.,#346);
#344=SURFACE_SIDE_STYLE('',(#347));
#345=SURFACE_SIDE_STYLE('',(#348));
#346=SURFACE_SIDE_STYLE('',(#349));
#347=SURFACE_STYLE_FILL_AREA(#350);
#348=SURFACE_STYLE_FILL_AREA(#351);
#349=SURFACE_STYLE_FILL_AREA(#352);
#350=FILL_AREA_STYLE('Steel - Satin',(#353));
#351=FILL_AREA_STYLE('Plastic - Glossy (Black)',(#354));
#352=FILL_AREA_STYLE('Lead - Rough',(#355));
#353=FILL_AREA_STYLE_COLOUR('Steel - Satin',#356);
#354=FILL_AREA_STYLE_COLOUR('Plastic - Glossy (Black)',#357);
#355=FILL_AREA_STYLE_COLOUR('Lead - Rough',#358);
#356=COLOUR_RGB('Steel - Satin',0.627450980392157,0.627450980392157,0.627450980392157);
#357=COLOUR_RGB('Plastic - Glossy (Black)',0.0980392156862745,0.0980392156862745,
0.0980392156862745);
#358=COLOUR_RGB('Lead - Rough',0.815686274509804,0.815686274509804,0.815686274509804);
ENDSEC;
END-ISO-10303-21;
