ISO-10303-21;
HEADER;
/* Generated by software containing ST-Developer
 * from STEP Tools, Inc. (www.steptools.com) 
 */

FILE_DESCRIPTION(
/* description */ ('',
'CAx-IF Rec.Pracs.---Representation and Presentation of Product Manufa
cturing Information (PMI)---4.0---2014-10-13'),
/* implementation_level */ '2;1');

FILE_NAME(
/* name */ 'MP503_sensor.step',
/* time_stamp */ '2025-01-05T05:43:06+03:00',
/* author */ (''),
/* organization */ (''),
/* preprocessor_version */ 'ST-DEVELOPER v20',
/* originating_system */ 'Autodesk Translation Framework v13.20.0.188',

/* authorisation */ '');

FILE_SCHEMA (('AP242_MANAGED_MODEL_BASED_3D_ENGINEERING_MIM_LF { 1 0 10303 442 1 1 4 }'));
ENDSEC;

DATA;
#10=MECHANICAL_DESIGN_GEOMETRIC_PRESENTATION_REPRESENTATION('',(#14,#15),
#567);
#11=SHAPE_REPRESENTATION_RELATIONSHIP('SRR','None',#574,#12);
#12=ADVANCED_BREP_SHAPE_REPRESENTATION('',(#13),#566);
#13=MANIFOLD_SOLID_BREP('Body1',#304);
#14=STYLED_ITEM('',(#584),#299);
#15=STYLED_ITEM('',(#583),#13);
#16=B_SPLINE_CURVE_WITH_KNOTS('',3,(#485,#486,#487,#488,#489,#490,#491,
#492,#493,#494),.UNSPECIFIED.,.F.,.F.,(4,2,2,2,4),(0.,0.00739598386192493,
0.0148057329183144,0.0222329457155039,0.0296759840197373),.UNSPECIFIED.);
#17=B_SPLINE_CURVE_WITH_KNOTS('',3,(#497,#498,#499,#500,#501,#502,#503,
#504,#505,#506),.UNSPECIFIED.,.F.,.F.,(4,2,2,2,4),(0.0890369178439734,0.0964799561482068,
0.103907168945396,0.111316918001786,0.118712901863711),.UNSPECIFIED.);
#18=FACE_BOUND('',#95,.T.);
#19=FACE_BOUND('',#100,.T.);
#20=FACE_BOUND('',#115,.T.);
#21=FACE_BOUND('',#116,.T.);
#22=FACE_BOUND('',#117,.T.);
#23=FACE_BOUND('',#118,.T.);
#24=PLANE('',#325);
#25=PLANE('',#335);
#26=PLANE('',#342);
#27=PLANE('',#346);
#28=PLANE('',#350);
#29=PLANE('',#354);
#30=PLANE('',#355);
#31=PLANE('',#356);
#32=PLANE('',#357);
#33=PLANE('',#358);
#34=PLANE('',#359);
#35=LINE('',#473,#50);
#36=LINE('',#477,#51);
#37=LINE('',#479,#52);
#38=LINE('',#481,#53);
#39=LINE('',#509,#54);
#40=LINE('',#512,#55);
#41=LINE('',#528,#56);
#42=LINE('',#535,#57);
#43=LINE('',#542,#58);
#44=LINE('',#549,#59);
#45=LINE('',#556,#60);
#46=LINE('',#557,#61);
#47=LINE('',#558,#62);
#48=LINE('',#560,#63);
#49=LINE('',#562,#64);
#50=VECTOR('',#376,4.);
#51=VECTOR('',#379,10.);
#52=VECTOR('',#380,10.);
#53=VECTOR('',#381,10.);
#54=VECTOR('',#390,10.);
#55=VECTOR('',#393,10.);
#56=VECTOR('',#414,0.3);
#57=VECTOR('',#423,0.3);
#58=VECTOR('',#432,0.3);
#59=VECTOR('',#441,0.3);
#60=VECTOR('',#450,10.);
#61=VECTOR('',#451,10.);
#62=VECTOR('',#452,10.);
#63=VECTOR('',#455,10.);
#64=VECTOR('',#458,10.);
#65=CYLINDRICAL_SURFACE('',#323,4.);
#66=CYLINDRICAL_SURFACE('',#329,4.7);
#67=CYLINDRICAL_SURFACE('',#339,0.3);
#68=CYLINDRICAL_SURFACE('',#343,0.3);
#69=CYLINDRICAL_SURFACE('',#347,0.3);
#70=CYLINDRICAL_SURFACE('',#351,0.3);
#71=FACE_OUTER_BOUND('',#92,.T.);
#72=FACE_OUTER_BOUND('',#93,.T.);
#73=FACE_OUTER_BOUND('',#94,.T.);
#74=FACE_OUTER_BOUND('',#96,.T.);
#75=FACE_OUTER_BOUND('',#97,.T.);
#76=FACE_OUTER_BOUND('',#98,.T.);
#77=FACE_OUTER_BOUND('',#99,.T.);
#78=FACE_OUTER_BOUND('',#101,.T.);
#79=FACE_OUTER_BOUND('',#102,.T.);
#80=FACE_OUTER_BOUND('',#103,.T.);
#81=FACE_OUTER_BOUND('',#104,.T.);
#82=FACE_OUTER_BOUND('',#105,.T.);
#83=FACE_OUTER_BOUND('',#106,.T.);
#84=FACE_OUTER_BOUND('',#107,.T.);
#85=FACE_OUTER_BOUND('',#108,.T.);
#86=FACE_OUTER_BOUND('',#109,.T.);
#87=FACE_OUTER_BOUND('',#110,.T.);
#88=FACE_OUTER_BOUND('',#111,.T.);
#89=FACE_OUTER_BOUND('',#112,.T.);
#90=FACE_OUTER_BOUND('',#113,.T.);
#91=FACE_OUTER_BOUND('',#114,.T.);
#92=EDGE_LOOP('',(#203,#204,#205,#206,#207));
#93=EDGE_LOOP('',(#208,#209,#210,#211,#212));
#94=EDGE_LOOP('',(#213,#214,#215,#216));
#95=EDGE_LOOP('',(#217));
#96=EDGE_LOOP('',(#218,#219,#220,#221));
#97=EDGE_LOOP('',(#222,#223,#224,#225));
#98=EDGE_LOOP('',(#226,#227,#228,#229));
#99=EDGE_LOOP('',(#230));
#100=EDGE_LOOP('',(#231));
#101=EDGE_LOOP('',(#232,#233,#234,#235));
#102=EDGE_LOOP('',(#236,#237,#238,#239));
#103=EDGE_LOOP('',(#240));
#104=EDGE_LOOP('',(#241,#242,#243,#244));
#105=EDGE_LOOP('',(#245));
#106=EDGE_LOOP('',(#246,#247,#248,#249));
#107=EDGE_LOOP('',(#250));
#108=EDGE_LOOP('',(#251,#252,#253,#254));
#109=EDGE_LOOP('',(#255));
#110=EDGE_LOOP('',(#256));
#111=EDGE_LOOP('',(#257,#258,#259,#260));
#112=EDGE_LOOP('',(#261,#262,#263,#264,#265));
#113=EDGE_LOOP('',(#266,#267,#268,#269,#270));
#114=EDGE_LOOP('',(#271,#272,#273,#274));
#115=EDGE_LOOP('',(#275));
#116=EDGE_LOOP('',(#276));
#117=EDGE_LOOP('',(#277));
#118=EDGE_LOOP('',(#278));
#119=CIRCLE('',#319,4.);
#120=CIRCLE('',#320,0.2);
#121=CIRCLE('',#321,4.2);
#122=CIRCLE('',#322,4.);
#123=CIRCLE('',#324,4.);
#124=CIRCLE('',#326,4.5);
#125=CIRCLE('',#328,4.7);
#126=CIRCLE('',#330,4.7);
#127=CIRCLE('',#332,2.75);
#128=CIRCLE('',#333,0.4);
#129=CIRCLE('',#334,3.09641016151378);
#130=CIRCLE('',#336,3.6);
#131=CIRCLE('',#338,0.4);
#132=CIRCLE('',#340,0.3);
#133=CIRCLE('',#341,0.3);
#134=CIRCLE('',#344,0.3);
#135=CIRCLE('',#345,0.3);
#136=CIRCLE('',#348,0.3);
#137=CIRCLE('',#349,0.3);
#138=CIRCLE('',#352,0.3);
#139=CIRCLE('',#353,0.3);
#140=VERTEX_POINT('',#463);
#141=VERTEX_POINT('',#464);
#142=VERTEX_POINT('',#466);
#143=VERTEX_POINT('',#471);
#144=VERTEX_POINT('',#475);
#145=VERTEX_POINT('',#476);
#146=VERTEX_POINT('',#478);
#147=VERTEX_POINT('',#480);
#148=VERTEX_POINT('',#484);
#149=VERTEX_POINT('',#495);
#150=VERTEX_POINT('',#508);
#151=VERTEX_POINT('',#510);
#152=VERTEX_POINT('',#514);
#153=VERTEX_POINT('',#516);
#154=VERTEX_POINT('',#520);
#155=VERTEX_POINT('',#525);
#156=VERTEX_POINT('',#527);
#157=VERTEX_POINT('',#532);
#158=VERTEX_POINT('',#534);
#159=VERTEX_POINT('',#539);
#160=VERTEX_POINT('',#541);
#161=VERTEX_POINT('',#546);
#162=VERTEX_POINT('',#548);
#163=VERTEX_POINT('',#554);
#164=VERTEX_POINT('',#555);
#165=EDGE_CURVE('',#140,#141,#119,.T.);
#166=EDGE_CURVE('',#141,#142,#120,.T.);
#167=EDGE_CURVE('',#142,#142,#121,.T.);
#168=EDGE_CURVE('',#141,#140,#122,.T.);
#169=EDGE_CURVE('',#143,#143,#123,.T.);
#170=EDGE_CURVE('',#143,#140,#35,.T.);
#171=EDGE_CURVE('',#144,#145,#36,.T.);
#172=EDGE_CURVE('',#145,#146,#37,.T.);
#173=EDGE_CURVE('',#146,#147,#38,.T.);
#174=EDGE_CURVE('',#144,#147,#124,.T.);
#175=EDGE_CURVE('',#147,#148,#16,.F.);
#176=EDGE_CURVE('',#148,#149,#125,.T.);
#177=EDGE_CURVE('',#149,#144,#17,.F.);
#178=EDGE_CURVE('',#150,#148,#39,.T.);
#179=EDGE_CURVE('',#150,#151,#126,.T.);
#180=EDGE_CURVE('',#151,#149,#40,.T.);
#181=EDGE_CURVE('',#152,#152,#127,.T.);
#182=EDGE_CURVE('',#152,#153,#128,.T.);
#183=EDGE_CURVE('',#153,#153,#129,.T.);
#184=EDGE_CURVE('',#154,#154,#130,.T.);
#185=EDGE_CURVE('',#154,#143,#131,.T.);
#186=EDGE_CURVE('',#155,#155,#132,.T.);
#187=EDGE_CURVE('',#155,#156,#41,.T.);
#188=EDGE_CURVE('',#156,#156,#133,.T.);
#189=EDGE_CURVE('',#157,#157,#134,.T.);
#190=EDGE_CURVE('',#157,#158,#42,.T.);
#191=EDGE_CURVE('',#158,#158,#135,.T.);
#192=EDGE_CURVE('',#159,#159,#136,.T.);
#193=EDGE_CURVE('',#159,#160,#43,.T.);
#194=EDGE_CURVE('',#160,#160,#137,.T.);
#195=EDGE_CURVE('',#161,#161,#138,.T.);
#196=EDGE_CURVE('',#161,#162,#44,.T.);
#197=EDGE_CURVE('',#162,#162,#139,.T.);
#198=EDGE_CURVE('',#163,#164,#45,.T.);
#199=EDGE_CURVE('',#163,#146,#46,.T.);
#200=EDGE_CURVE('',#164,#145,#47,.T.);
#201=EDGE_CURVE('',#164,#151,#48,.T.);
#202=EDGE_CURVE('',#163,#150,#49,.T.);
#203=ORIENTED_EDGE('',*,*,#165,.T.);
#204=ORIENTED_EDGE('',*,*,#166,.T.);
#205=ORIENTED_EDGE('',*,*,#167,.T.);
#206=ORIENTED_EDGE('',*,*,#166,.F.);
#207=ORIENTED_EDGE('',*,*,#168,.T.);
#208=ORIENTED_EDGE('',*,*,#169,.F.);
#209=ORIENTED_EDGE('',*,*,#170,.T.);
#210=ORIENTED_EDGE('',*,*,#168,.F.);
#211=ORIENTED_EDGE('',*,*,#165,.F.);
#212=ORIENTED_EDGE('',*,*,#170,.F.);
#213=ORIENTED_EDGE('',*,*,#171,.T.);
#214=ORIENTED_EDGE('',*,*,#172,.T.);
#215=ORIENTED_EDGE('',*,*,#173,.T.);
#216=ORIENTED_EDGE('',*,*,#174,.F.);
#217=ORIENTED_EDGE('',*,*,#167,.F.);
#218=ORIENTED_EDGE('',*,*,#175,.T.);
#219=ORIENTED_EDGE('',*,*,#176,.T.);
#220=ORIENTED_EDGE('',*,*,#177,.T.);
#221=ORIENTED_EDGE('',*,*,#174,.T.);
#222=ORIENTED_EDGE('',*,*,#176,.F.);
#223=ORIENTED_EDGE('',*,*,#178,.F.);
#224=ORIENTED_EDGE('',*,*,#179,.T.);
#225=ORIENTED_EDGE('',*,*,#180,.T.);
#226=ORIENTED_EDGE('',*,*,#181,.T.);
#227=ORIENTED_EDGE('',*,*,#182,.T.);
#228=ORIENTED_EDGE('',*,*,#183,.T.);
#229=ORIENTED_EDGE('',*,*,#182,.F.);
#230=ORIENTED_EDGE('',*,*,#184,.F.);
#231=ORIENTED_EDGE('',*,*,#183,.F.);
#232=ORIENTED_EDGE('',*,*,#184,.T.);
#233=ORIENTED_EDGE('',*,*,#185,.T.);
#234=ORIENTED_EDGE('',*,*,#169,.T.);
#235=ORIENTED_EDGE('',*,*,#185,.F.);
#236=ORIENTED_EDGE('',*,*,#186,.F.);
#237=ORIENTED_EDGE('',*,*,#187,.T.);
#238=ORIENTED_EDGE('',*,*,#188,.F.);
#239=ORIENTED_EDGE('',*,*,#187,.F.);
#240=ORIENTED_EDGE('',*,*,#186,.T.);
#241=ORIENTED_EDGE('',*,*,#189,.F.);
#242=ORIENTED_EDGE('',*,*,#190,.T.);
#243=ORIENTED_EDGE('',*,*,#191,.F.);
#244=ORIENTED_EDGE('',*,*,#190,.F.);
#245=ORIENTED_EDGE('',*,*,#189,.T.);
#246=ORIENTED_EDGE('',*,*,#192,.F.);
#247=ORIENTED_EDGE('',*,*,#193,.T.);
#248=ORIENTED_EDGE('',*,*,#194,.F.);
#249=ORIENTED_EDGE('',*,*,#193,.F.);
#250=ORIENTED_EDGE('',*,*,#192,.T.);
#251=ORIENTED_EDGE('',*,*,#195,.F.);
#252=ORIENTED_EDGE('',*,*,#196,.T.);
#253=ORIENTED_EDGE('',*,*,#197,.F.);
#254=ORIENTED_EDGE('',*,*,#196,.F.);
#255=ORIENTED_EDGE('',*,*,#195,.T.);
#256=ORIENTED_EDGE('',*,*,#181,.F.);
#257=ORIENTED_EDGE('',*,*,#198,.F.);
#258=ORIENTED_EDGE('',*,*,#199,.T.);
#259=ORIENTED_EDGE('',*,*,#172,.F.);
#260=ORIENTED_EDGE('',*,*,#200,.F.);
#261=ORIENTED_EDGE('',*,*,#201,.F.);
#262=ORIENTED_EDGE('',*,*,#200,.T.);
#263=ORIENTED_EDGE('',*,*,#171,.F.);
#264=ORIENTED_EDGE('',*,*,#177,.F.);
#265=ORIENTED_EDGE('',*,*,#180,.F.);
#266=ORIENTED_EDGE('',*,*,#202,.T.);
#267=ORIENTED_EDGE('',*,*,#178,.T.);
#268=ORIENTED_EDGE('',*,*,#175,.F.);
#269=ORIENTED_EDGE('',*,*,#173,.F.);
#270=ORIENTED_EDGE('',*,*,#199,.F.);
#271=ORIENTED_EDGE('',*,*,#202,.F.);
#272=ORIENTED_EDGE('',*,*,#198,.T.);
#273=ORIENTED_EDGE('',*,*,#201,.T.);
#274=ORIENTED_EDGE('',*,*,#179,.F.);
#275=ORIENTED_EDGE('',*,*,#188,.T.);
#276=ORIENTED_EDGE('',*,*,#191,.T.);
#277=ORIENTED_EDGE('',*,*,#194,.T.);
#278=ORIENTED_EDGE('',*,*,#197,.T.);
#279=TOROIDAL_SURFACE('',#318,4.2,0.2);
#280=TOROIDAL_SURFACE('',#327,4.5,0.2);
#281=TOROIDAL_SURFACE('',#331,3.09641016151378,0.4);
#282=TOROIDAL_SURFACE('',#337,3.6,0.4);
#283=ADVANCED_FACE('',(#71),#279,.F.);
#284=ADVANCED_FACE('',(#72),#65,.T.);
#285=ADVANCED_FACE('',(#73,#18),#24,.T.);
#286=ADVANCED_FACE('',(#74),#280,.T.);
#287=ADVANCED_FACE('',(#75),#66,.T.);
#288=ADVANCED_FACE('',(#76),#281,.T.);
#289=ADVANCED_FACE('',(#77,#19),#25,.T.);
#290=ADVANCED_FACE('',(#78),#282,.T.);
#291=ADVANCED_FACE('',(#79),#67,.T.);
#292=ADVANCED_FACE('',(#80),#26,.F.);
#293=ADVANCED_FACE('',(#81),#68,.T.);
#294=ADVANCED_FACE('',(#82),#27,.F.);
#295=ADVANCED_FACE('',(#83),#69,.T.);
#296=ADVANCED_FACE('',(#84),#28,.F.);
#297=ADVANCED_FACE('',(#85),#70,.T.);
#298=ADVANCED_FACE('',(#86),#29,.F.);
#299=ADVANCED_FACE('',(#87),#30,.T.);
#300=ADVANCED_FACE('',(#88),#31,.T.);
#301=ADVANCED_FACE('',(#89),#32,.T.);
#302=ADVANCED_FACE('',(#90),#33,.T.);
#303=ADVANCED_FACE('',(#91,#20,#21,#22,#23),#34,.F.);
#304=CLOSED_SHELL('',(#283,#284,#285,#286,#287,#288,#289,#290,#291,#292,
#293,#294,#295,#296,#297,#298,#299,#300,#301,#302,#303));
#305=DERIVED_UNIT_ELEMENT(#307,1.);
#306=DERIVED_UNIT_ELEMENT(#569,-3.);
#307=(
MASS_UNIT()
NAMED_UNIT(*)
SI_UNIT(.KILO.,.GRAM.)
);
#308=DERIVED_UNIT((#305,#306));
#309=MEASURE_REPRESENTATION_ITEM('density measure',
POSITIVE_RATIO_MEASURE(7850.),#308);
#310=PROPERTY_DEFINITION_REPRESENTATION(#315,#312);
#311=PROPERTY_DEFINITION_REPRESENTATION(#316,#313);
#312=REPRESENTATION('material name',(#314),#566);
#313=REPRESENTATION('density',(#309),#566);
#314=DESCRIPTIVE_REPRESENTATION_ITEM('Steel','Steel');
#315=PROPERTY_DEFINITION('material property','material name',#576);
#316=PROPERTY_DEFINITION('material property','density of part',#576);
#317=AXIS2_PLACEMENT_3D('',#461,#360,#361);
#318=AXIS2_PLACEMENT_3D('',#462,#362,#363);
#319=AXIS2_PLACEMENT_3D('',#465,#364,#365);
#320=AXIS2_PLACEMENT_3D('',#467,#366,#367);
#321=AXIS2_PLACEMENT_3D('',#468,#368,#369);
#322=AXIS2_PLACEMENT_3D('',#469,#370,#371);
#323=AXIS2_PLACEMENT_3D('',#470,#372,#373);
#324=AXIS2_PLACEMENT_3D('',#472,#374,#375);
#325=AXIS2_PLACEMENT_3D('',#474,#377,#378);
#326=AXIS2_PLACEMENT_3D('',#482,#382,#383);
#327=AXIS2_PLACEMENT_3D('',#483,#384,#385);
#328=AXIS2_PLACEMENT_3D('',#496,#386,#387);
#329=AXIS2_PLACEMENT_3D('',#507,#388,#389);
#330=AXIS2_PLACEMENT_3D('',#511,#391,#392);
#331=AXIS2_PLACEMENT_3D('',#513,#394,#395);
#332=AXIS2_PLACEMENT_3D('',#515,#396,#397);
#333=AXIS2_PLACEMENT_3D('',#517,#398,#399);
#334=AXIS2_PLACEMENT_3D('',#518,#400,#401);
#335=AXIS2_PLACEMENT_3D('',#519,#402,#403);
#336=AXIS2_PLACEMENT_3D('',#521,#404,#405);
#337=AXIS2_PLACEMENT_3D('',#522,#406,#407);
#338=AXIS2_PLACEMENT_3D('',#523,#408,#409);
#339=AXIS2_PLACEMENT_3D('',#524,#410,#411);
#340=AXIS2_PLACEMENT_3D('',#526,#412,#413);
#341=AXIS2_PLACEMENT_3D('',#529,#415,#416);
#342=AXIS2_PLACEMENT_3D('',#530,#417,#418);
#343=AXIS2_PLACEMENT_3D('',#531,#419,#420);
#344=AXIS2_PLACEMENT_3D('',#533,#421,#422);
#345=AXIS2_PLACEMENT_3D('',#536,#424,#425);
#346=AXIS2_PLACEMENT_3D('',#537,#426,#427);
#347=AXIS2_PLACEMENT_3D('',#538,#428,#429);
#348=AXIS2_PLACEMENT_3D('',#540,#430,#431);
#349=AXIS2_PLACEMENT_3D('',#543,#433,#434);
#350=AXIS2_PLACEMENT_3D('',#544,#435,#436);
#351=AXIS2_PLACEMENT_3D('',#545,#437,#438);
#352=AXIS2_PLACEMENT_3D('',#547,#439,#440);
#353=AXIS2_PLACEMENT_3D('',#550,#442,#443);
#354=AXIS2_PLACEMENT_3D('',#551,#444,#445);
#355=AXIS2_PLACEMENT_3D('',#552,#446,#447);
#356=AXIS2_PLACEMENT_3D('',#553,#448,#449);
#357=AXIS2_PLACEMENT_3D('',#559,#453,#454);
#358=AXIS2_PLACEMENT_3D('',#561,#456,#457);
#359=AXIS2_PLACEMENT_3D('',#563,#459,#460);
#360=DIRECTION('axis',(0.,0.,1.));
#361=DIRECTION('refdir',(1.,0.,0.));
#362=DIRECTION('center_axis',(0.,0.,-1.));
#363=DIRECTION('ref_axis',(-1.,0.,0.));
#364=DIRECTION('center_axis',(0.,0.,-1.));
#365=DIRECTION('ref_axis',(1.,0.,0.));
#366=DIRECTION('center_axis',(-1.22464679914735E-16,-1.,0.));
#367=DIRECTION('ref_axis',(1.,-1.22464679914735E-16,0.));
#368=DIRECTION('center_axis',(0.,0.,1.));
#369=DIRECTION('ref_axis',(1.,0.,0.));
#370=DIRECTION('center_axis',(0.,0.,-1.));
#371=DIRECTION('ref_axis',(1.,0.,0.));
#372=DIRECTION('center_axis',(0.,0.,1.));
#373=DIRECTION('ref_axis',(1.,0.,0.));
#374=DIRECTION('center_axis',(0.,0.,1.));
#375=DIRECTION('ref_axis',(1.,0.,0.));
#376=DIRECTION('',(0.,0.,-1.));
#377=DIRECTION('center_axis',(0.,0.,1.));
#378=DIRECTION('ref_axis',(1.,0.,0.));
#379=DIRECTION('',(8.49259547367464E-16,-1.,0.));
#380=DIRECTION('',(1.,1.38777878078145E-15,0.));
#381=DIRECTION('',(8.49259547367466E-17,1.,0.));
#382=DIRECTION('center_axis',(0.,0.,-1.));
#383=DIRECTION('ref_axis',(6.12323399573677E-17,1.,0.));
#384=DIRECTION('center_axis',(0.,0.,1.));
#385=DIRECTION('ref_axis',(2.83276944882399E-16,1.,0.));
#386=DIRECTION('center_axis',(0.,0.,1.));
#387=DIRECTION('ref_axis',(6.12323399573677E-17,1.,0.));
#388=DIRECTION('center_axis',(0.,0.,1.));
#389=DIRECTION('ref_axis',(2.83276944882399E-16,1.,0.));
#390=DIRECTION('',(0.,0.,1.));
#391=DIRECTION('center_axis',(0.,0.,1.));
#392=DIRECTION('ref_axis',(1.,0.,0.));
#393=DIRECTION('',(0.,0.,1.));
#394=DIRECTION('center_axis',(0.,0.,1.));
#395=DIRECTION('ref_axis',(-1.,0.,0.));
#396=DIRECTION('center_axis',(0.,0.,-1.));
#397=DIRECTION('ref_axis',(1.,0.,0.));
#398=DIRECTION('center_axis',(1.22464679914735E-16,1.,0.));
#399=DIRECTION('ref_axis',(1.,-1.22464679914735E-16,0.));
#400=DIRECTION('center_axis',(0.,0.,1.));
#401=DIRECTION('ref_axis',(-1.,0.,0.));
#402=DIRECTION('center_axis',(0.,0.,1.));
#403=DIRECTION('ref_axis',(1.,0.,0.));
#404=DIRECTION('center_axis',(0.,0.,-1.));
#405=DIRECTION('ref_axis',(1.,0.,0.));
#406=DIRECTION('center_axis',(0.,0.,1.));
#407=DIRECTION('ref_axis',(1.,0.,0.));
#408=DIRECTION('center_axis',(1.22464679914735E-16,-1.,0.));
#409=DIRECTION('ref_axis',(-1.,-1.22464679914735E-16,0.));
#410=DIRECTION('center_axis',(0.,0.,-1.));
#411=DIRECTION('ref_axis',(1.,0.,0.));
#412=DIRECTION('center_axis',(0.,0.,-1.));
#413=DIRECTION('ref_axis',(1.,0.,0.));
#414=DIRECTION('',(0.,0.,1.));
#415=DIRECTION('center_axis',(0.,0.,1.));
#416=DIRECTION('ref_axis',(1.,0.,0.));
#417=DIRECTION('center_axis',(0.,0.,1.));
#418=DIRECTION('ref_axis',(1.,0.,0.));
#419=DIRECTION('center_axis',(0.,0.,-1.));
#420=DIRECTION('ref_axis',(1.,0.,0.));
#421=DIRECTION('center_axis',(0.,0.,-1.));
#422=DIRECTION('ref_axis',(1.,0.,0.));
#423=DIRECTION('',(0.,0.,1.));
#424=DIRECTION('center_axis',(0.,0.,1.));
#425=DIRECTION('ref_axis',(1.,0.,0.));
#426=DIRECTION('center_axis',(0.,0.,1.));
#427=DIRECTION('ref_axis',(1.,0.,0.));
#428=DIRECTION('center_axis',(0.,0.,-1.));
#429=DIRECTION('ref_axis',(1.,0.,0.));
#430=DIRECTION('center_axis',(0.,0.,-1.));
#431=DIRECTION('ref_axis',(1.,0.,0.));
#432=DIRECTION('',(0.,0.,1.));
#433=DIRECTION('center_axis',(0.,0.,1.));
#434=DIRECTION('ref_axis',(1.,0.,0.));
#435=DIRECTION('center_axis',(0.,0.,1.));
#436=DIRECTION('ref_axis',(1.,0.,0.));
#437=DIRECTION('center_axis',(0.,0.,-1.));
#438=DIRECTION('ref_axis',(1.,0.,0.));
#439=DIRECTION('center_axis',(0.,0.,-1.));
#440=DIRECTION('ref_axis',(1.,0.,0.));
#441=DIRECTION('',(0.,0.,1.));
#442=DIRECTION('center_axis',(0.,0.,1.));
#443=DIRECTION('ref_axis',(1.,0.,0.));
#444=DIRECTION('center_axis',(0.,0.,1.));
#445=DIRECTION('ref_axis',(1.,0.,0.));
#446=DIRECTION('center_axis',(0.,0.,1.));
#447=DIRECTION('ref_axis',(1.,0.,0.));
#448=DIRECTION('center_axis',(1.38777878078145E-15,-1.,0.));
#449=DIRECTION('ref_axis',(1.,1.38777878078145E-15,0.));
#450=DIRECTION('',(-1.,-1.38777878078145E-15,0.));
#451=DIRECTION('',(0.,0.,1.));
#452=DIRECTION('',(0.,0.,1.));
#453=DIRECTION('center_axis',(-1.,-8.49259547367464E-16,0.));
#454=DIRECTION('ref_axis',(8.49259547367464E-16,-1.,0.));
#455=DIRECTION('',(-8.49259547367464E-16,1.,0.));
#456=DIRECTION('center_axis',(1.,-8.49259547367466E-17,0.));
#457=DIRECTION('ref_axis',(8.49259547367466E-17,1.,0.));
#458=DIRECTION('',(8.49259547367466E-17,1.,0.));
#459=DIRECTION('center_axis',(0.,0.,1.));
#460=DIRECTION('ref_axis',(1.,0.,0.));
#461=CARTESIAN_POINT('',(0.,0.,0.));
#462=CARTESIAN_POINT('Origin',(0.,0.,0.7));
#463=CARTESIAN_POINT('',(-4.,4.89858719658941E-16,0.7));
#464=CARTESIAN_POINT('',(4.,-4.89858719658941E-16,0.7));
#465=CARTESIAN_POINT('Origin',(0.,0.,0.7));
#466=CARTESIAN_POINT('',(4.2,-5.14351655641888E-16,0.5));
#467=CARTESIAN_POINT('Origin',(4.2,-5.14351655641888E-16,0.7));
#468=CARTESIAN_POINT('Origin',(0.,0.,0.5));
#469=CARTESIAN_POINT('Origin',(0.,0.,0.7));
#470=CARTESIAN_POINT('Origin',(0.,0.,0.));
#471=CARTESIAN_POINT('',(-4.,-4.89858719658941E-16,7.1));
#472=CARTESIAN_POINT('Origin',(0.,0.,7.1));
#473=CARTESIAN_POINT('',(-4.,-4.89858719658941E-16,0.));
#474=CARTESIAN_POINT('Origin',(0.,-0.399999999999997,0.5));
#475=CARTESIAN_POINT('',(-0.399999999999999,-4.48218696620299,0.5));
#476=CARTESIAN_POINT('',(-0.399999999999999,-5.49999999999999,0.5));
#477=CARTESIAN_POINT('',(-0.399999999999999,-5.49999999999999,0.5));
#478=CARTESIAN_POINT('',(0.4,-5.49999999999999,0.5));
#479=CARTESIAN_POINT('',(0.4,-5.49999999999999,0.5));
#480=CARTESIAN_POINT('',(0.4,-4.48218696620299,0.5));
#481=CARTESIAN_POINT('',(0.4,-5.49999999999999,0.5));
#482=CARTESIAN_POINT('Origin',(0.,0.,0.5));
#483=CARTESIAN_POINT('Origin',(0.,0.,0.3));
#484=CARTESIAN_POINT('',(0.4,-4.68294778958724,0.3));
#485=CARTESIAN_POINT('Ctrl Pts',(0.4,-4.68294778958724,0.3));
#486=CARTESIAN_POINT('Ctrl Pts',(0.4,-4.68294778958724,0.32465327953975));
#487=CARTESIAN_POINT('Ctrl Pts',(0.4,-4.67716152056013,0.353665834189756));
#488=CARTESIAN_POINT('Ctrl Pts',(0.4,-4.65824115458872,0.399247446574596));
#489=CARTESIAN_POINT('Ctrl Pts',(0.4,-4.64174338299717,0.423870477049578));
#490=CARTESIAN_POINT('Ctrl Pts',(0.4,-4.60673324946536,0.458802408725047));
#491=CARTESIAN_POINT('Ctrl Pts',(0.4,-4.58200966542183,0.475275423962047));
#492=CARTESIAN_POINT('Ctrl Pts',(0.4,-4.53620048714938,0.494208374239747));
#493=CARTESIAN_POINT('Ctrl Pts',(0.4,-4.50699709388377,0.5));
#494=CARTESIAN_POINT('Ctrl Pts',(0.4,-4.48218696620299,0.5));
#495=CARTESIAN_POINT('',(-0.4,-4.68294778958724,0.3));
#496=CARTESIAN_POINT('Origin',(0.,0.,0.3));
#497=CARTESIAN_POINT('Ctrl Pts',(-0.4,-4.48218696620299,0.5));
#498=CARTESIAN_POINT('Ctrl Pts',(-0.4,-4.50699709388377,0.5));
#499=CARTESIAN_POINT('Ctrl Pts',(-0.4,-4.53620048714938,0.494208374239747));
#500=CARTESIAN_POINT('Ctrl Pts',(-0.4,-4.58200966542183,0.475275423962047));
#501=CARTESIAN_POINT('Ctrl Pts',(-0.4,-4.60673324946536,0.458802408725047));
#502=CARTESIAN_POINT('Ctrl Pts',(-0.4,-4.64174338299717,0.423870477049578));
#503=CARTESIAN_POINT('Ctrl Pts',(-0.4,-4.65824115458872,0.399247446574596));
#504=CARTESIAN_POINT('Ctrl Pts',(-0.4,-4.67716152056013,0.353665834189756));
#505=CARTESIAN_POINT('Ctrl Pts',(-0.4,-4.68294778958724,0.32465327953975));
#506=CARTESIAN_POINT('Ctrl Pts',(-0.4,-4.68294778958724,0.3));
#507=CARTESIAN_POINT('Origin',(0.,0.,0.));
#508=CARTESIAN_POINT('',(0.4,-4.68294778958724,0.));
#509=CARTESIAN_POINT('',(0.4,-4.68294778958724,0.));
#510=CARTESIAN_POINT('',(-0.4,-4.68294778958724,0.));
#511=CARTESIAN_POINT('Origin',(0.,0.,0.));
#512=CARTESIAN_POINT('',(-0.4,-4.68294778958724,0.));
#513=CARTESIAN_POINT('Origin',(0.,0.,7.1));
#514=CARTESIAN_POINT('',(2.75,-3.36777869765522E-16,7.3));
#515=CARTESIAN_POINT('Origin',(0.,0.,7.3));
#516=CARTESIAN_POINT('',(3.09641016151378,3.79200879314518E-16,7.5));
#517=CARTESIAN_POINT('Origin',(3.09641016151378,-3.79200879314518E-16,7.1));
#518=CARTESIAN_POINT('Origin',(0.,0.,7.5));
#519=CARTESIAN_POINT('Origin',(0.,0.,7.5));
#520=CARTESIAN_POINT('',(-3.6,4.40872847693047E-16,7.5));
#521=CARTESIAN_POINT('Origin',(0.,0.,7.5));
#522=CARTESIAN_POINT('Origin',(0.,0.,7.1));
#523=CARTESIAN_POINT('Origin',(-3.6,-4.40872847693047E-16,7.1));
#524=CARTESIAN_POINT('Origin',(-1.55,1.55,0.));
#525=CARTESIAN_POINT('',(-1.85,1.55,-3.2));
#526=CARTESIAN_POINT('Origin',(-1.55,1.55,-3.2));
#527=CARTESIAN_POINT('',(-1.85,1.55,0.));
#528=CARTESIAN_POINT('',(-1.85,1.55,0.));
#529=CARTESIAN_POINT('Origin',(-1.55,1.55,0.));
#530=CARTESIAN_POINT('Origin',(-1.55,1.55,-3.2));
#531=CARTESIAN_POINT('Origin',(-1.55,-1.55,0.));
#532=CARTESIAN_POINT('',(-1.85,-1.55,-3.2));
#533=CARTESIAN_POINT('Origin',(-1.55,-1.55,-3.2));
#534=CARTESIAN_POINT('',(-1.85,-1.55,0.));
#535=CARTESIAN_POINT('',(-1.85,-1.55,0.));
#536=CARTESIAN_POINT('Origin',(-1.55,-1.55,0.));
#537=CARTESIAN_POINT('Origin',(-1.55,-1.55,-3.2));
#538=CARTESIAN_POINT('Origin',(1.55,1.55,0.));
#539=CARTESIAN_POINT('',(1.25,1.55,-3.2));
#540=CARTESIAN_POINT('Origin',(1.55,1.55,-3.2));
#541=CARTESIAN_POINT('',(1.25,1.55,0.));
#542=CARTESIAN_POINT('',(1.25,1.55,0.));
#543=CARTESIAN_POINT('Origin',(1.55,1.55,0.));
#544=CARTESIAN_POINT('Origin',(1.55,1.55,-3.2));
#545=CARTESIAN_POINT('Origin',(1.55,-1.55,0.));
#546=CARTESIAN_POINT('',(1.25,-1.55,-3.2));
#547=CARTESIAN_POINT('Origin',(1.55,-1.55,-3.2));
#548=CARTESIAN_POINT('',(1.25,-1.55,0.));
#549=CARTESIAN_POINT('',(1.25,-1.55,0.));
#550=CARTESIAN_POINT('Origin',(1.55,-1.55,0.));
#551=CARTESIAN_POINT('Origin',(1.55,-1.55,-3.2));
#552=CARTESIAN_POINT('Origin',(0.,0.,7.3));
#553=CARTESIAN_POINT('Origin',(-0.399999999999999,-5.49999999999999,0.));
#554=CARTESIAN_POINT('',(0.4,-5.49999999999999,0.));
#555=CARTESIAN_POINT('',(-0.399999999999999,-5.49999999999999,0.));
#556=CARTESIAN_POINT('',(0.4,-5.49999999999999,0.));
#557=CARTESIAN_POINT('',(0.4,-5.49999999999999,0.));
#558=CARTESIAN_POINT('',(-0.399999999999999,-5.49999999999999,0.));
#559=CARTESIAN_POINT('Origin',(-0.4,-4.68294778958724,0.));
#560=CARTESIAN_POINT('',(-0.399999999999999,-5.49999999999999,0.));
#561=CARTESIAN_POINT('Origin',(0.4,-5.49999999999999,0.));
#562=CARTESIAN_POINT('',(0.4,-5.49999999999999,0.));
#563=CARTESIAN_POINT('Origin',(0.,-0.399999999999997,0.));
#564=UNCERTAINTY_MEASURE_WITH_UNIT(LENGTH_MEASURE(0.01),#568,
'DISTANCE_ACCURACY_VALUE',
'Maximum model space distance between geometric entities at asserted c
onnectivities');
#565=UNCERTAINTY_MEASURE_WITH_UNIT(LENGTH_MEASURE(0.01),#568,
'DISTANCE_ACCURACY_VALUE',
'Maximum model space distance between geometric entities at asserted c
onnectivities');
#566=(
GEOMETRIC_REPRESENTATION_CONTEXT(3)
GLOBAL_UNCERTAINTY_ASSIGNED_CONTEXT((#564))
GLOBAL_UNIT_ASSIGNED_CONTEXT((#568,#570,#571))
REPRESENTATION_CONTEXT('','3D')
);
#567=(
GEOMETRIC_REPRESENTATION_CONTEXT(3)
GLOBAL_UNCERTAINTY_ASSIGNED_CONTEXT((#565))
GLOBAL_UNIT_ASSIGNED_CONTEXT((#568,#570,#571))
REPRESENTATION_CONTEXT('','3D')
);
#568=(
LENGTH_UNIT()
NAMED_UNIT(*)
SI_UNIT(.MILLI.,.METRE.)
);
#569=(
LENGTH_UNIT()
NAMED_UNIT(*)
SI_UNIT($,.METRE.)
);
#570=(
NAMED_UNIT(*)
PLANE_ANGLE_UNIT()
SI_UNIT($,.RADIAN.)
);
#571=(
NAMED_UNIT(*)
SI_UNIT($,.STERADIAN.)
SOLID_ANGLE_UNIT()
);
#572=SHAPE_DEFINITION_REPRESENTATION(#573,#574);
#573=PRODUCT_DEFINITION_SHAPE('',$,#576);
#574=SHAPE_REPRESENTATION('',(#317),#566);
#575=PRODUCT_DEFINITION_CONTEXT('part definition',#580,'design');
#576=PRODUCT_DEFINITION('MP503 sensor','MP503 sensor v1',#577,#575);
#577=PRODUCT_DEFINITION_FORMATION('',$,#582);
#578=PRODUCT_RELATED_PRODUCT_CATEGORY('MP503 sensor v1',
'MP503 sensor v1',(#582));
#579=APPLICATION_PROTOCOL_DEFINITION('international standard',
'ap242_managed_model_based_3d_engineering',2011,#580);
#580=APPLICATION_CONTEXT('Managed model based 3d engineering');
#581=PRODUCT_CONTEXT('part definition',#580,'mechanical');
#582=PRODUCT('MP503 sensor','MP503 sensor v1',$,(#581));
#583=PRESENTATION_STYLE_ASSIGNMENT((#585));
#584=PRESENTATION_STYLE_ASSIGNMENT((#586));
#585=SURFACE_STYLE_USAGE(.BOTH.,#587);
#586=SURFACE_STYLE_USAGE(.BOTH.,#588);
#587=SURFACE_SIDE_STYLE('',(#589));
#588=SURFACE_SIDE_STYLE('',(#590));
#589=SURFACE_STYLE_FILL_AREA(#591);
#590=SURFACE_STYLE_FILL_AREA(#592);
#591=FILL_AREA_STYLE('Steel - Satin',(#593));
#592=FILL_AREA_STYLE('Fabric (Grey)',(#594));
#593=FILL_AREA_STYLE_COLOUR('Steel - Satin',#595);
#594=FILL_AREA_STYLE_COLOUR('Fabric (Grey)',#596);
#595=COLOUR_RGB('Steel - Satin',0.627450980392157,0.627450980392157,0.627450980392157);
#596=COLOUR_RGB('Fabric (Grey)',0.,0.,0.);
ENDSEC;
END-ISO-10303-21;
